Decode Acoustic

Paramore

Decode Acoustic

tabs Beginner beginner

by  CEZHAR

save to print version add songbook text version e-mail correct tuner
chordsukulelecavacokeyboardtabbassdrumsharmonicaflute Guitar Pro
close

there isn't a video lesson for this song

chords

Paramore

	  		I FIgured out some parts by myself the another parts are from the original song 
Acoustic Version:http://www.youtube.com/watch?v=Yp15UMJ19RE 
Tuning: D-A-D-G-B-e 

Verse: 

How can I decide whats right 
When youre clouding up my mind? 
I cant win youre losing fight 
All the time 

How could I ever own whats mine 
When youre always taking sides 
But you wont take away my pride 
No, not this time 
Not this time  
D|-4-4-4-4-|  |-4-4-4-4-4-4-4-4-1-1-1-1-1-1-1-1-8-8-8-8-8-8-8-8-3(x4)-3 
A|-4-4-4-4-|  |-4-4-4-4-4-4-4-4-1-1-1-1-1-1-1-1-8-8-8-8-8-8-8-8-3-----3 
D|-6-6-6-6-|x2|-4-4-4-4-4-4-4-4-1-1-1-1-1-1-1-1-8-8-8-8-8-8-8-8-3-----3 
G|-6-6-6-6-|  |-x-x-x-x-x-x-x-x-x-x-x-x-x-x-x-x-x-x-x-x-x-x-x-x-x-----x 
B|-x-x-x-x-|  |-x-x-x-x-x-x-x-x-x-x-x-x-x-x-x-x-x-x-x-x-x-x-x-x-x-----x 
e|-x-x-x-x-|  |-x-x-x-x-x-x-x-x-x-x-x-x-x-x-x-x-x-x-x-x-x-x-x-x-x-----x 
                .....................................................                   
                 
Chorus: 
How did we get here? 
When I used to know you so well 
How did we get here? 
Well, I think I know how  
e|--------------------------------------------------------------------| 
B|--------------------------------------------------------------------| 
G|-----------------------------------3-3-3-3-3-3-3-3------------------| 
D|-4-4-4-4-4-4-4-4?-1-1-1-1-1-1-1-1?-3-3-3-3-3-3-3-3?-3-3-3-3-3-3-3-3-| 
A|-4-4-4-4-4-4-4-4?-1-1-1-1-1-1-1-1?-1-1-1-1-1-1-1-1--3-3-3-3-3-3-3-3-| 
D|-4-4-4-4-4-4-4-4?-1-1-1-1-1-1-1-1?----------------?-3-3-3-3-3-3-3-3-| 
TWO TIMES :) 

Chorus Outro: 
Piano Only 

Verse: 
The truth is hiding in your eyes 
And its hanging on your tongue 
Just boiling in my blood 
But you think that I cant see 
What kind of man that you are 
If youre a man at all 
Well, I will figure this one out 
On my own 
(Im screaming, I love you so) 
On my own 
(My thoughts you cant decode)  

e|--------------------------------------------------------------------| 
B|--------------------------------------------------------------------| 
G|-----------------------------------3333333333333333-----------------| 
D|-4444444444444444-1111111111111111-3333333333333333-3333333333333333| 
A|-4444444444444444-1111111111111111-1111111111111111-3333333333333333| 
D|-4444444444444444-1111111111111111------------------3333333333333333| 

Pre-Chorus: 
e|--------------------------------------------------------------------| 
B|--------------------------------------------------------------------| 
G|-----------------------------------3--------------------------------| 
D|-4----------------1----------------3----------------3333333333333333| 
A|-4----------------1----------------1----------------3333333333333333| 
D|-4----------------1---------------------------------3333333333333333| 
                                                      ......... 

*Chorus 
*Violin Solo 
During Solo: 
e|--------------------------------------------------------------------| 
B|--------------------------------------------------------------------| 
G|-----------------------------------3-3-3-3-3-3-3-3------------------| 
D|-4-4-4-4-4-4-4-4?-1-1-1-1-1-1-1-1?-3-3-3-3-3-3-3-3?-3-3-3-3-3-3-3-3-| 
A|-4-4-4-4-4-4-4-4?-1-1-1-1-1-1-1-1?-1-1-1-1-1-1-1-1--3-3-3-3-3-3-3-3-| 
D|-4-4-4-4-4-4-4-4?-1-1-1-1-1-1-1-1?----------------?-3-3-3-3-3-3-3-3-| 
TWO TIMES :) 
Bridge: 
Do you see what weve done? 
Weve gone and made such fools 
Of ourselves 
Do you see what weve done? 
Weve gone and made such fools 
Of ourselves  

Guitars:Idle until the second "do you see" 

D|-4-| 
A|-4-|(x4) 
D|-6-| 
G|-6-| 
B|-X-| 
e|-X-| 

Interlude: 
e|--------------------------------------------------------------------| 
B|--------------------------------------------------------------------| 
G|-----------------------------------3-3-3-3-3-3-3-3------------------| 
D|-4-4-4-4-4-4-4-4?-1-1-1-1-1-1-1-1?-3-3-3-3-3-3-3-3?-3-3-3-3-3-3-3-3-| 
A|-4-4-4-4-4-4-4-4?-1-1-1-1-1-1-1-1?-1-1-1-1-1-1-1-1--3-3-3-3-3-3-3-3-| 
D|-4-4-4-4-4-4-4-4?-1-1-1-1-1-1-1-1?----------------?-3-3-3-3-3-3-3-3-| 

Outro: 
There is something I see in you 
It might kill me 
I want it to be true 
e|--------------------------------------------------------------------| 
B|--------------------------------------------------------------------| 
G|-------------3--------3-----------------------3--------3------------| 
D|-4---6---1---3-3--4---3---3---6---4---6---1---3-3--4---3---3---1-1-1| 
A|-4---6---1---1-3--4---1---3---6---4---6---1---1-3--4---1---3---1-1-1| 
D|-4---6---1-----3--4-------3---6---4---6---1-----3--4-------3---1-1-1| 
		  

Full key step upFull key step up
Half key step upHalf key step up
Half key step downHalf key step down
Full key step downFull key step down
hide glossary

See also:

tabs Michael Jackson - Billie Jean (Fingerstyle) tabs Ashlee Simpson - Pieces Of Me tabs Gavin Degraw - I Don't Want To Be tabs Michael Jackson - Beat It, Black Or White E Ben (riffs) tabs Camp Rock - This Is Me tabs Gavin Degraw - I Don't wanna Be
e-chords

Other versions:

tabs Decode Acoustic - Paramore
auto scroll beats size up size down change color hide chords drawings
tab show chords e-chords YouTube Clip e-chords hide all tabs e-chords go to top tab

share