December Avenue

home > December Avenue

Fallin Tab

December Avenue

Difficulty: nolevelnolevel

by PAULLET3

tuner correct add songbook print version text version save to e-mail
chordsukulelecavacokeyboardtabbassdrumsharmonicsflute Guitar Pro
chords

Fallin

Key:  C#m More
Fallin Key G#mG#m
Fallin Key AmAm
Fallin Key A#mA#m
Fallin Key BmBm(one step down)
Fallin Key CmCm(half step down)
Fallin Key C#mC#m(original key)
Fallin Key DmDm(half step up)
Fallin Key D#mD#m(one step up)
Fallin Key EmEm
Fallin Key FmFm
Fallin Key F#mF#m
Fallin Key GmGm
  		
Intro: 
Guitar 1 (Distorted): 
e|-------------------------------------------------------------------------------| 
B|-------------------------------------------------------------------------------| 
G|--2/9-9~----------------------------------14/9-9~------------------------------| 
D|--x-x-x-----------------------------------x--x-x-------------------------------| 
A|--4/7-7~----------------------------------12/7-7~------------------------------| 
E|-------------------------------------------------------------------------------| 

Guitar 2 (Clean): 
e|-------------0-------0----------5-------4------------0-------0-------5------4--| 
B|-------------------------------------------------------------------------------| 
G|-----------6-------7----------2-------2------------6-------7-------2------2----| 
D|---------6-------7----------4-------2------------6-------7-------2-------2-----| 
A|-------4-------5----------4-------1------------4-------5-------4-------1-------| 
E|-------------------------------------------------------------------------------| 

Guitar 1 (Distorted): 
e|---------------------------------------| 
B|---------------------------------------| 
G|--13-13-13/7-7/9-9--/13-13-13/7-7/9-9--| 
D|--x--x--x--x-x-x-x---x--x--x--x-x-x-x--| 
A|--11-11-11/5-5/7-7--/11-11-11/5-5/7-7--| 
E|---------------------------------------| 

Guitar 2 (Clean): 
C#m - D  F#m - E (x2) 

Verse: 
Guitar 2 (Clean): 
e|--------0-------0-------5-------4--| 
B|-----------------------------------| 
G|------6-------7-------2-------2----| 
D|----6-------7-------4-------2------| (x6) 
A|--4-------5-------4-------1--------| 
E|-----------------------------------| 

Guitar 1 (Distorted):  
e|-------|-------|------|-----------------------------| 
B|----5--|----5--|----5-|-----------------------------| 
G|--4----|--4----|--4---|--999-----999-----999/11-----| 
D|-------|-------|------|------6-7-----6-7--------9v--| 
A|-------|-------|------|-----------------------------| 
E|-------|-------|------|-----------------------------| 
*Play these four fills on the 3rd, 4th, 5th, and 6th times guitar 2 plays his part. 

PREChorus: 
Guitar 1 (Distorted): 
e|----------------|----------------|-------------------|-----------------| 
B|----------------|----------------|-------------------|-----------------| 
G|----------------|----------------|-------------------|-------9/11---9--| 
D|--6--7----------|--6--7----------|--6--7-------------|------------9----| 
A|--4--5--1--4-5--|--4--5--1--4-5--|--4--5--7-9--------|-----------------| 
E|--------0--2-3--|--------0--2-3--|-------------7-9~--|-----------------| 
*Guitar 1 is faint here. Listen carefully for the timing. 

Guitar 2 (Clean): 
C#m - F#m (x4) 

Chorus: 
Guitar 1 (Distorted): 
e|---------------------| 
B|---------------------| 
G|----9----9----9---9--|  
D|--7---66---7----6----| (x8) 
A|---------------------| 
E|---------------------| 
*Do little variations if you want to add variance. 

Guitar 2 (Clean): 
C#m - D  F#m - E (x4) 
*Listen to the song for the strumming pattern. Here is how I do it: 

    C#m         D      F#m         E 
e|--0--0--0-0-0-0-0-0--0--0--0-0-0-0-0-0--| 
B|--0--0--0-0-0-0-0-0--0--0--0-0-0-0-0-0--| 
G|--6--6--6-6-6/7-7-7--2--2--2-2-2/1-1-1--| 
D|--6--6--6-6-6/7-7-7--4--4--4-4-4/2-2-2--| 
A|--4--4--4-4-4/5-5-5--4--4--4-4-4/2-2-2--| 
E|----------------------------------------| 

PREVerse: 
Guitar 1 (Distorted): 
e|--------------------------| 
B|--------------------------| 
G|--9/2-2-------------------| 
D|--x/x-x-------------------| 
A|--7/0-0-------------------| 
E|--------------------------| 

Guitar 2 (Clean): 
e|---------------5-------4--| 
B|--------------------------| 
G|-------------2-------1----| 
D|-----------4-------2------| 
A|---------4-------2--------| 
E|--------------------------| 

verse 2: 
Guitar 2 (Clean): 
e|--------0-------0-------5-------4--| 
B|-----------------------------------| 
G|------6-------7-------2-------2----| 
D|----6-------7-------4-------2------| (x4) 
A|--4-------5-------4-------1--------| 
E|-----------------------------------| 
*Note that guitar 1 does not play here. 

PREChorus: 
Guitar 1 (Distorted): 
e|----------------|----------------|----------------|-----------------| 
B|----------------|----------------|----------------|-----------------| 
G|----------------|----------------|----------------|-------9/11---9--| 
D|--6--7----------|--6--7----------|--6--7----------|------------9----| 
A|--4--5--1--4-5--|--4--5--1--4-5--|--4--5--1--4-5--|-----------------| 
E|--------0--2-3--|--------0--2-3--|--------0--2-3--|-----------------| 

Guitar 2 (Clean): 
C#m - F#m (x4) 

Chorus: 
Guitar 1 (Distorted): 
e|---------------------| 
B|---------------------| 
G|----9----9----9---9--|  
D|--7---66---7----6----| (x8) 
A|---------------------| 
E|---------------------| 

Guitar 2 (Clean): 
C#m - D  F#m - E (x4) 

BRIDGE/BREAKDOWN: 
Guitar 1 (Distorted): 
e|-----------------| 
B|-----------------| 
G|-----------9-----| 
D|--6-2---------7--| (x6) 
A|--4-0------------| 
E|-----------------| 

Guitar 2 (Clean): 
C#m - D  F#m - E (x6) 

KEYBOARD Solo: 
Guitar 1 (Distorted): 
e|---------------------| 
B|---------------------| 
G|----9----9----9---9--|  
D|--7---66---7----6----| (x4) 
A|---------------------| 
E|---------------------| 
*Again, do little variations if you want to add variance. 

Guitar 2 (Clean): 
C#m - D  F#m - E (x2) 

LAST Chorus: 
Guitar 1 (Distorted): 
e|---------------------| 
B|---------------------| 
G|----9----9----9---9--|  
D|--7---66---7----6----| (x12) 
A|---------------------| 
E|---------------------| 

Guitar 2 (Clean): 
C#m - D  F#m - E (x6) 

OUTRO: 
Guitar 2 (Clean): 
e|--------0-------0----------5-------4------------0-------0-------5------4--| 
B|--------------------------------------------------------------------------| 
G|------6-------7----------2-------2------------6-------7-------2------2----| 
D|----6-------7----------4-------2------------6-------7-------2-------2-----| 
A|--4-------5----------4-------1------------4-------5-------4-------1-------| 
E|--------------------------------------------------------------------------| 
	  

Full key step upFull key step up
Half key step upHalf key step up
Half key step downHalf key step down
Full key step downFull key step down
Search Paypal
auto scroll beats size up size down change color hide chords drawings
tab show chords e-chords YouTube Clip e-chords hide all tabs e-chords go to top tab