Death Grips

Birds

Death Grips

tabs

by  PAULLET3

save to print version add songbook text version e-mail correct tuner
chordsukulelecavacokeyboardtabbassdrumsharmonicaflute Guitar Pro
close

there isn't a video lesson for this song

chords

Birds

	  		E|----6-------7------|--10---------------|------8----8~------|-11----------------| 
B|-8~----------------|----------10~------|-------------------|-------------------| 
G|-------------------|-------------------|-------------------|-------------------| 
D|-------------------|-------------------|-------------------|-------------------| 
A|-------------------|-------------------|-------------------|-------------------| 
E|-------------------|-------------------|-------------------|-------------------| 
                                                             

E|----6-------7------|--10---------------|------8----8~------|-11------4/6----4--| 
B|-8~----------------|----------10~------|-------------------|-------------------| 
G|-------------------|-------------------|-------------------|-------------------| 
D|-------------------|-------------------|-------------------|-------------------| 
A|-------------------|-------------------|-------------------|-------------------| 
E|-------------------|-------------------|-------------------|-------------------| 

E|-4h6-4---------------|--------------------| 
B|---------------------|--------------------| 
G|---------------------|--------------------| 
D|---------------------|--------------------| 
A|---------------------|--------------------| 
E|---------------------|--------------------| 
		  

See also:

tabs Ira! - Dias de Luta (Intro - Acustico Mtv) tabs Deep Purple - Deep Purple - Smoke On The Water tabs Deep Purple - Demon's Eye tabs Ira! - Inundação de Amor tabs Deep Purple - Smoke on the Water (solo) tabs Deep Purple - Black Knight
e-chords

Other versions:

tabs Death Grips - Birds tabs Billy Bragg And Wilco - Birds And Ships tabs Jordaan Mason And The Horse Museum - Birds Nest tabs The Flatliners - Birds Of England tabs Almah - Birds Of Prey
auto scroll beats size up size down change color hide chords drawings
tab show chords e-chords YouTube Clip e-chords hide all tabs e-chords go to top tab

share