Day6

home > Day6

121u Tab

Day6

Difficulty: nolevelnolevel

by PAULLET3

tuner correct add songbook print version text version save to e-mail
chordsukulelecavacokeyboardtabbassdrumsharmonicsflute Guitar Pro
chords

121u

Key:  F More
121u Key CC
121u Key C#C#
121u Key DD
121u Key D#D#(one step down)
121u Key EE(half step down)
121u Key FF(original key)
121u Key F#F#(half step up)
121u Key GG(one step up)
121u Key G#G#
121u Key AA
121u Key A#A#
121u Key BB
  		

Verse 

e|-------|-------||-------|-------||-------|-------||-------||-------| 
G|-------|-------||-------|-------||-------|-------||-------||-------| 
D|-------|-------||-------|-------||-------|-------||-------||-------| 
G|-------|-------||-------|-------||-------|-------||-------||-------| 
A|-------|-------||-------|-------||-------|-------||-------||5-5-5-5| 
E|5-5-5-5|5-5-5-5||4-4-4-4|4-4-4-4||3-3-3-3|3-3-3-3||2-2-2-2||-------| 

e|-------|-------||-------|-------||-------|-------||-------||-------| 
G|-------|-------||-------|-------||-------|-------||-------||-------| 
D|-------|-------||-------|-------||-------|-------||-------||-------| 
G|-------|-------||-------|-------||-------|-------||-------||-------| 
A|-------|-------||-------|-------||-------|-------||-------||5-5-5-5| 
E|5-5-5-5|5-5-5-5||4-4-4-4|4-4-4-4||3-3-3-3|3-3-3-3||2-2-2-2||-------| 



Pre-Chorus ? ?? ?? ???? (Ne nunbit sonjit hanahana) 


e|----|----|----|---|-------| 
B|----|----|----|---|-------| 
G|----|7--7|----|---|5-5-5-5| 
D|3--3|7--7|6--6|7-7|5-5-5-5| * 
A|3--3|5--5|6--6|7-7|3-3-3-3| 
E|1--1|----|4--4|5-5|-------| 

  F    D    G#   A   C 

e|----|----|----|-------| 
B|----|----|----|-------| 
G|----|7--7|----|-------| 
D|3--3|7--7|5--5|4-4-4-4| 
A|3--3|5--5|5--5|4-4-4-4| 
E|1--1|----|3--3|6-6-6-6| 

  F    D    G  A C                                                            

*A hits two beats on time with bass drum; C hits two times per bass drum beat. Check the video to see how it 
works and you'll understand! 


Chorus 
e|-------|-------||-------|-------||-------|-------||-------|-------| 
B|-------|-------||-------|-------||-------|-------||-------|-------| 
G|-------|-------||-------|-------||-------|-------||-------|-------| 
D|7-7-7-7|7-7-7-7||4-4-4-4|4-4-4-4||3-3-3-3|3-3-3-3||6-6-6-6|6-6-6-6| 
A|7-7-7-7|7-7-7-7||4-4-4-4|4-4-4-4||3-3-3-3|3-3-3-3||6-6-6-6|6-6-6-6| 
E|5-5-5-5|5-5-5-5||2-2-2-2|2-2-2-2||1-1-1-1|1-1-1-1||4-4-4-4|4-4-4-4| 

  A       A        F#      F#       F       F        G#      G# 

e|-------|-------||-------|-------||-------|-------||-------|-------| 
B|-------|-------||-------|-------||-------|-------||-------|-------| 
G|-------|-------||-------|-------||-------|-------||-------|-------| 
D|7-7-7-7|7-7-7-7||4-4-4-4|4-4-4-4||3-3-3-3|3-3-3-3||6-6-6-6|6-6-6-6| 
A|7-7-7-7|7-7-7-7||4-4-4-4|4-4-4-4||3-3-3-3|3-3-3-3||6-6-6-6|6-6-6-6| 
E|5-5-5-5|5-5-5-5||2-2-2-2|2-2-2-2||1-1-1-1|1-1-1-1||4-4-4-4|4-4-4-4| 

  A       A        F#      F#       F       F        G#      G# 


e|-------||-------||-------||-------| 
B|-------||-------||-------||-------| 
G|-------||-------||-------||-------| 
D|7-7-7-7||4-4-4-4||3-3-3-3||6-6-6-6| 
A|7-7-7-7||4-4-4-4||3-3-3-3||6-6-6-6| 
E|5-5-5-5||2-2-2-2||1-1-1-1||4-4-4-4| 

  A        F#       F        G#    


e|-------||-------||-------||-------| 
B|-------||-------||-------||-------| 
G|-------||-------||-------||-------| 
D|7-7-7-7||4-4-4-4||3-3-3-3||6-6-6-6| 
A|7-7-7-7||4-4-4-4||3-3-3-3||6-6-6-6| 
E|5-5-5-5||2-2-2-2||1-1-1-1||4-4-4-4| 

  A        F#       F        G#    



Verse 

e|-------|-------||-------|-------||-------|-------||-------||-------| 
G|-------|-------||-------|-------||-------|-------||-------||-------| 
D|-------|-------||-------|-------||-------|-------||-------||-------| 
G|-------|-------||-------|-------||-------|-------||-------||-------| 
A|-------|-------||-------|-------||-------|-------||-------||5-5-5-5| 
E|5-5-5-5|5-5-5-5||4-4-4-4|4-4-4-4||3-3-3-3|3-3-3-3||2-2-2-2||-------| 

e|-------|-------||-------|-------||-------|-------||-------||-------| 
G|-------|-------||-------|-------||-------|-------||-------||-------| 
D|-------|-------||-------|-------||-------|-------||-------||-------| 
G|-------|-------||-------|-------||-------|-------||-------||-------| 
A|-------|-------||-------|-------||-------|-------||-------||5-5-5-5| 
E|5-5-5-5|5-5-5-5||4-4-4-4|4-4-4-4||3-3-3-3|3-3-3-3||2-2-2-2||-------| 


Pre-Chorus ? ?? ?? ???? (Ne nunbit sonjit hanahana) 


e|----|----|----|---|-------| 
B|----|----|----|---|-------| 
G|----|7--7|----|---|5-5-5-5| 
D|3--3|7--7|6--6|7-7|5-5-5-5| * 
A|3--3|5--5|6--6|7-7|3-3-3-3| 
E|1--1|----|4--4|5-5|-------| 

  F    D    G#   A   C 

e|----|----|----|-------| 
B|----|----|----|-------| 
G|----|7--7|----|-------| 
D|3--3|7--7|5--5|4-4-4-4| 
A|3--3|5--5|5--5|4-4-4-4| 
E|1--1|----|3--3|6-6-6-6| 

  F    D    G  A C                                                            

*A hits two beats on time with bass drum; C hits two times per bass drum beat. 


Chorus 

e|-------|-------||-------|-------||-------|-------||-------|-------| 
B|-------|-------||-------|-------||-------|-------||-------|-------| 
G|-------|-------||-------|-------||-------|-------||-------|-------| 
D|7-7-7-7|7-7-7-7||4-4-4-4|4-4-4-4||3-3-3-3|3-3-3-3||6-6-6-6|6-6-6-6| 
A|7-7-7-7|7-7-7-7||4-4-4-4|4-4-4-4||3-3-3-3|3-3-3-3||6-6-6-6|6-6-6-6| 
E|5-5-5-5|5-5-5-5||2-2-2-2|2-2-2-2||1-1-1-1|1-1-1-1||4-4-4-4|4-4-4-4| 

  A       A        F#      F#       F       F        G#      G# 

e|-------|-------||-------|-------||-------|-------||-------|-------| 
B|-------|-------||-------|-------||-------|-------||-------|-------| 
G|-------|-------||-------|-------||-------|-------||-------|-------| 
D|7-7-7-7|7-7-7-7||4-4-4-4|4-4-4-4||3-3-3-3|3-3-3-3||6-6-6-6|6-6-6-6| 
A|7-7-7-7|7-7-7-7||4-4-4-4|4-4-4-4||3-3-3-3|3-3-3-3||6-6-6-6|6-6-6-6| 
E|5-5-5-5|5-5-5-5||2-2-2-2|2-2-2-2||1-1-1-1|1-1-1-1||4-4-4-4|4-4-4-4| 

  A       A        F#      F#       F       F        G#      G# 


e|-------||-------||-------||-------| 
B|-------||-------||-------||-------| 
G|-------||-------||-------||-------| 
D|7-7-7-7||4-4-4-4||3-3-3-3||6-6-6-6| 
A|7-7-7-7||4-4-4-4||3-3-3-3||6-6-6-6| 
E|5-5-5-5||2-2-2-2||1-1-1-1||4-4-4-4| 

  A        F#       F        G#    


e|-------||-------||-------||-------| 
B|-------||-------||-------||-------| 
G|-------||-------||-------||-------| 
D|7-7-7-7||4-4-4-4||3-3-3-3||6-6-6-6| 
A|7-7-7-7||4-4-4-4||3-3-3-3||6-6-6-6| 
E|5-5-5-5||2-2-2-2||1-1-1-1||4-4-4-4| 

  A        F#       F        G#    


Bridge 

e|-------|-------||-------|-------||-------|-------||-------||-------| 
G|-------|-------||-------|-------||-------|-------||-------||-------| 
D|-------|-------||-------|-------||-------|-------||-------||-------| 
G|-------|-------||-------|-------||-------|-------||-------||-------| 
A|-------|-------||-------|-------||-------|-------||-------||5-5-5-5| 
E|5-5-5-5|5-5-5-5||4-4-4-4|4-4-4-4||3-3-3-3|3-3-3-3||2-2-2-2||-------| 

e|-------|-------||-------|-------||-------|-------||-------| 
G|-------|-------||-------|-------||-------|-------||-------| 
D|-------|-------||-------|-------||-------|-------||-------| 
G|-------|-------||-------|-------||-------|-------||-------| 
A|-------|-------||-------|-------||-------|-------||-------| 
E|5-5-5-5|5-5-5-5||4-4-4-4|4-4-4-4||3-3-3-3|3-3-3-3||4-4-4-4| 



Chorus 

e|-------|-------||-------|-------||-------|-------||-------|-------| 
B|-------|-------||-------|-------||-------|-------||-------|-------| 
G|-------|-------||-------|-------||-------|-------||-------|-------| 
D|7-7-7-7|7-7-7-7||4-4-4-4|4-4-4-4||3-3-3-3|3-3-3-3||6-6-6-6|6-6-6-6| 
A|7-7-7-7|7-7-7-7||4-4-4-4|4-4-4-4||3-3-3-3|3-3-3-3||6-6-6-6|6-6-6-6| 
E|5-5-5-5|5-5-5-5||2-2-2-2|2-2-2-2||1-1-1-1|1-1-1-1||4-4-4-4|4-4-4-4| 

  A       A        F#      F#       F       F        G#      G# 

e|-------|-------||-------|-------||-------|-------||-------|-------| 
B|-------|-------||-------|-------||-------|-------||-------|-------| 
G|-------|-------||-------|-------||-------|-------||-------|-------| 
D|7-7-7-7|7-7-7-7||4-4-4-4|4-4-4-4||3-3-3-3|3-3-3-3||6-6-6-6|6-6-6-6| 
A|7-7-7-7|7-7-7-7||4-4-4-4|4-4-4-4||3-3-3-3|3-3-3-3||6-6-6-6|6-6-6-6| 
E|5-5-5-5|5-5-5-5||2-2-2-2|2-2-2-2||1-1-1-1|1-1-1-1||4-4-4-4|4-4-4-4| 

  A       A        F#      F#       F       F        G#      G# 


e|-------||-------||-------||-------| 
B|-------||-------||-------||-------| 
G|-------||-------||-------||-------| 
D|7-7-7-7||4-4-4-4||3-3-3-3||6-6-6-6| 
A|7-7-7-7||4-4-4-4||3-3-3-3||6-6-6-6| 
E|5-5-5-5||2-2-2-2||1-1-1-1||4-4-4-4| 

  A        F#       F        G#    


e|-------||-------||-------| 
B|-------||-------||-------| 
G|-------||-------||-------| 
D|7-7-7-7||4-4-4-4||3-3-3-3| 
A|7-7-7-7||4-4-4-4||3-3-3-3| 
E|5-5-5-5||2-2-2-2||1-1-1-1| 
  
  A        F#       F        




Enjoy and thanks for checking this tab out! (: Please comment if you see any mistakes in the tabs. 
	  

Full key step upFull key step up
Half key step upHalf key step up
Half key step downHalf key step down
Full key step downFull key step down
Search Paypal
auto scroll beats size up size down change color hide chords drawings
tab show chords e-chords YouTube Clip e-chords hide all tabs e-chords go to top tab