Dawn Rockets

Sleepwalker

Dawn Rockets

tabs

by  MARCNAGEL

save to print version add songbook text version e-mail correct tuner
chordsukulelecavacokeyboardtabbassdrumsharmonicaflute Guitar Pro
close

there isn't a video lesson for this song

chords

Sleepwalker

	  		Intro 

D7 

A - C#m - F#m - D 


----------12---------12------12----------12---------12------12----------| 
--10--10-----10--10------10------9---9------9---9-------9---------------| 
------------------------------------------------------------------------| 
------------------------------------------------------------------------| 
------------------------------------------------------------------------| 
------------------------------------------------------------------------| 

----------12---------12------12----------7-------9---------7------------| 
--7---7-------7---7-------7-------5---5------5-------5--------5---------| 
------------------------------------------------------------------------| 
------------------------------------------------------------------------| 
------------------------------------------------------------------------| 
------------------------------------------------------------------------| 

----------12------14------12----------------12-----12-------12----------| 
--10--10-----10------10--------10----9---9------9-------9---------------| 
------------------------------------------------------------------------| 
------------------------------------------------------------------------| 
------------------------------------------------------------------------| 
------------------------------------------------------------------------| 

------------------------------------------------7-------9-----7---------| 
--7---7---9---9---10---10----12---12---5---5------5-------5-----5-------| 
---------------------------------------------------------------------6--| 
------------------------------------------------------------------------| 
------------------------------------------------------------------------| 
------------------------------------------------------------------------| 


verse 1 

             A        C#m                  F#m      D 
Oh I'm a sleepwalker, I lock my bedroom door at night. 
                   A        C#m                  F#m      D 
Well she's a dream walker, she locks me in my head all night. 
                 A        C#m                  F#m      D 
And when I wake up in an alien place, I drop to my knees and cry. 
                  A        C#m                  F#m      D 
Cos she's a dream walker, she locks me in my head all night. 


Chorus (repeat intro) 


verse 2 

Feels like it lives in me, a desperate need for help and for advice. She knows my  
history, my every need my every vice. And when I'm watching from the far side of the room but  
in the corner of my eyes I have a strange understanding, of the way my mind aligns to my eyes. 


Repeat Chorus 


Coda (same chords, half speed, two hard strums) 

A                          C#m                           F#m                             D 
Don't go to sleep,        don't go to sleep,        don't go to sleep,    don't go to sleep     x2 


Solo (same chords) 

------------------------------------12--12--12--12--14--14--14--14------| 
---10--10--10--10--12--12--14--14---------------------------------------| 
------------------------------------------------------------------------| 
------------------------------------------------------------------------| 
------------------------------------------------------------------------| 
------------------------------------------------------------------------| 

---17--17--17--17--17--17--17--17--14--14--14-------14----------14------| 
-------------------------------------------------15--------15-----------| 
------------------------------------------------------------------------| 
------------------------------------------------------------------------| 
------------------------------------------------------------------------| 
------------------------------------------------------------------------| 

------------------------------------12--12--12-------12-------10--------| 
---10--10--10--10--12--12--14--14---------------14------14--------------| 
------------------------------------------------------------------------| 
------------------------------------------------------------------------| 
------------------------------------------------------------------------| 
------------------------------------------------------------------------| 

------------------------------------------------------------------------| 
--14--14--14--12--12--12--10--10---9---9---9---7---7---7---5---5--------| 
------------------------------------------------------------------------| 
------------------------------------------------------------------------| 
------------------------------------------------------------------------| 
------------------------------------------------------------------------| 


-----------7---------9---------7---------------------------------------| 
----5---5-------5---------5---------5------10--------------------------| 
-----------------------------------------------------------------------| 
-----------------------------------------------------------------------| 
-----------------------------------------------------------------------| 
-----------------------------------------------------------------------| 
		  

Full key step upFull key step up
Half key step upHalf key step up
Half key step downHalf key step down
Full key step downFull key step down
hide glossary

See also:

tabs Deep Purple - Demonds Eye tabs Deep Purple - Money Talks tabs Ira! - Eu Quero Sempre Mais (Com Pitty, intro) tabs Albert Hammond Jr - Holiday tabs Deep Purple - Smoke on the water (intro) tabs Deep Purple - Smoke on the Water (ver. 2)
e-chords

Other versions:

tabs Nightwish - Sleepwalker tabs Wallflowers - Sleepwalker tabs Megadeth - Sleepwalker tabs Dawn Rockets - Sleepwalker tabs Wallflowers - Sleepwalker Acoustic tabs Wallflowers - Sleepwalker Live
auto scroll beats size up size down change color hide chords drawings
tab show chords e-chords YouTube Clip e-chords hide all tabs e-chords go to top tab

share