Daughtry

Used To

Daughtry

tabs

by  DRUMXGUITAR4

save to print version add songbook text version e-mail correct tuner
chordsukulelecavacokeyboardtabbassdrumsharmonicaflute Guitar Pro
close

there isn't a video lesson for this song

chords

Used To

Year: 2006 - Album: Daughtry

	  		This is Used To by daughtry. It originally has a 5-string but i tabbed it using a 4-string. This is a really rough tab that's really basic, and i don't know if i have all the notes or the right number of notes. anyway, enjoy and keep listening to daughtry. 

Come in at 0:05 of the Song. 

Intro: (After Drums) 

G|-------| 
D|-------| 
A|-------| 
E|--12\--| 

Verse: 

You used to talk to me like... 

G|--------------------------------|  \ 
D|--------------------------------|   \x2 
A|--------------------------------|   /x2 
E|--0--0--0--0--7--5--5--5--5--7--|  / 

Pre-Chorus:  

Nice and Slow, to nowhere in particular. 

G|-----------------| 
D|-----------------| 
A|-----------------| 
E|-7-7-7-7-5-5-7-7-| 

Chorus: 

G|---------------------------------| 
D|---------------------------------| x2 
A|---------------------------------| x2 
E|-0-0-0-0-7-7-7-7/5-5-5-5\7-7-7-7-| 

Post Chorus: 

G|-----------------| 
D|-----------------| 
A|-----------------| 
E|-5-5-5-5/7-7-7-7-| <- (There might be more in this) 

Go Back to Verse, then Pre Chorus, then Chorus, then Post Chorus, and then we get to the Bridge: 

G|-----------------------------------------------------------------| 
D|-----------------------------------------------------------------| x2 
A|-----------------------------------------------------------------| x2 
E|-00-0----00-0----00-0----00-0----55-5----55-5----55-5----55-5----| 

Then after the Bridge - 2 times comes the end of the bridge (not the soft part) 

G|--------------------| 
D|--------------------| 
A|--------------------| 
E|--5/77----77-7----0-| < Let this Ring Out for the Soft Part (starting at 2:17) and wait. 

Then after the Soft Part ends (at 2:27)  

G|-----------| 
D|-----------| 
A|-----------| 
E|-5-5\------| 

Then Repeat Chorus and Post Chorus as many times until song ends (listen to the song and play along with it) and end on: 

G|-----| 
D|-----| 
A|-----| 
E|--0--| (Let this Ring) 

End Notes:  
-I do not have the right amount of notes that the song has in this tab, simply to save space. I used half as many notes as there should, so theres really 2 times as more in the song (if i put down 4 theres 8, but the 8 are faster.) If you want to get this down, just listen to the song. I definatly missed a few fills and bass parts for this song (i listened to them, i just couldnt get it) so i just put down the simple bass part. Easy enough. Enjoy! 

-Oh, and Chris Daughtry Rules! 

Tabbed by Matt originally on E-Chords, for any copying uses.   


		  

Full key step upFull key step up
Half key step upHalf key step up
Half key step downHalf key step down
Full key step downFull key step down
hide glossary

See also:

tabs Guns N' Roses - Welcome to The Jungle tabs Guns N' Roses - Knockin' On Heaven's Door tabs 3 Doors Down - When I'm gone tabs Guns N' Roses - Don't Cry tabs Cheap Trick - The Flame tabs Aerosmith - Dream On
e-chords

Other versions:

tabs Daughtry - Used To tabs I Mother Earth - Used To Be Alright tabs Sawyer Brown - Used To Blue tabs The Rasmus - Used to feel before tabs John Butler - Used To Get High tabs Guns N' Roses - Used To Love Her
auto scroll beats size up size down change color hide chords drawings
tab show chords e-chords YouTube Clip e-chords hide all tabs e-chords go to top tab

share