Daughtry / Slash

What I Want

Daughtry / Slash

tabs Expert expert

by  HELENA_2892

save to print version add songbook text version e-mail correct tuner
chordsukulelecavacokeyboardtabbassdrumsharmonicaflute Guitar Pro
close

there isn't a video lesson for this song

chords

What I Want

	  		Intro 

Gb|----------------|-------------------|------------------| 
Db|----------------|-------------------|------------------| 
Ab|----------------|-------------------|------------------| 
Db|5\--5-7-0-5-7-0-|333333333-55555555-|0-000000000000-32-| 

Gb|------------------| 
Db|------------------| 
Ab|------------------| 
Db|0-000000000000-32-| 

Verse 1 

Gb|-------------------|------------------| 
Db|-------------------|------------------| 
Ab|-------------------|------------------| 
Db|0-00000000-570-570-|3-33333333-555555-| 

Gb|-------------------|------------------| 
Db|-------------------|------------------| 
Ab|-------------------|------------------| 
Db|0-00000000-570-570-|3-33333333-55557\-| 

Chorus 

Gb|--------------------------------------| 
Db|------------------------------5-----3-| 
Ab|--------3-333333------------5---5--3--| 
Db|0-000000---------5-55555555-------3---| 

Gb|---------------------------------------| 
Db|-------------------------------5-----3-| 
Ab|--------3-333333-----------3-5---5--3--| 
Db|0-000000---------5-5555555---------3---| 

Pre-Verse 

Gb|-------------------------| (x2) 
Db|-------------------------| 
Ab|-------------------------| 
Db|0-00000000000-32---------| 

Verse 2 

Gb|-------------------|------------------| 
Db|-------------------|------------------| 
Ab|-------------------|------------------| 
Db|0-00000000-570-570-|3-33333333-555555-| 

Gb|-------------------|-----------------------| 
Db|-------------------|-----------------------| 
Ab|-------------------|-----------31----------| 
Db|0-00000000-570-570-|3-333333-5---7h53h21---| 

Play the Chorus again, then play: 

Pre-Bridge 

Gb|-----------------| 
Db|-----------------| 
Ab|-----------------| 
Db|0-00000000000000-| 

Bridge 

Gb|-----------------|----------------------| 
Db|-----------------|-----------------5----| 
Ab|3-33333333333333-|------------13h5---3h-| 
Db|-----------------|5-55555555------------| 

Gb|-------------------|-----------------| 
Db|---------------5---|-----------------| 
Ab|1-111111111113---3-|-----------------| 
Db|-------------------|7-77777777777777-| 

Solo 

Gb|-------------------------------------| 
Db|-------------------------------------| 
Ab|-------------------------------------| 
Db|0-0000000-33333333-55555555-5-3h5-32-| 

Gb|----------------------------------------| 
Db|----------------------------------------| 
Ab|----------------------------------------| 
Db|0-0000000-33333333-55555555-10h8h7h5h32-| 

Play the Chorus, then play this: 

Gb|---------------------|------------------| (x2) 
Db|---------------------|------------------| 
Ab|----------3--3--3----|------------------| 
Db|0-0000000--5--5--53h-|5-5555555555555---| 

Outro 

Gb|------------------| 
Db|------------------| 
Ab|------------------| 
Db|0-000000000000-32-|   

End Note 

Gb|--| 
Db|--| 
Ab|--| 
Db|0~| 




		  

See also:

tabs Ben Harper - Diamonds on inside tabs Red Hot Chili Peppers - Scar Tissue (ver. 2) tabs Red Hot Chili Peppers - The Zephyr Song tabs Red Hot Chili Peppers - I Could Die For You tabs Red Hot Chili Peppers - Give It Away tabs Red Hot Chili Peppers - Scar Tissue
e-chords

Other versions:

tabs Daughtry / Slash - What I Want tabs Ane Brun - What I Want
auto scroll beats size up size down change color hide chords drawings
tab show chords e-chords YouTube Clip e-chords hide all tabs e-chords go to top tab

share