Darrell Evans

Trading My Sorrows

Darrell Evans

tabs Intermediate intermediate

by  CHRISKELLY

save to print version add songbook text version e-mail correct tuner
chordsukulelecavacokeyboardtabbassdrumsharmonicaflute Guitar Pro
close

there isn't a video lesson for this song

chords

Trading My Sorrows

	  		Intro & Verse  
G:|6-6-11--11-14-14-13--13-6-6-11--11-14-14-16--16-| 
D:|---------------------------------------------------------| 
A:|---------------------------------------------------------| 
E:|5-5-10--10-14-14-12--12-5-5-10--10-14-14-16--16-| 
 
G:|18-18-11--11-14-14-13--13-6-6-11--11-14-14-13--13-| 
D:|------------------------------------------------------------| 
A:|------------------------------------------------------------| 
E:|17-17-10--10-14-14-12--12-5-5-10--10-14-14-12--12-| 
 
Pre-Chorus. 
G:|---------------------------| 
D:|---------------------------| 
A:|----------------5-5-5-----| 
E:|0--5-5-5-0--3----------3-| 
 
Chorus  
G:|------------------------| 
D:|------------------------| 
A:|------5--5-------------| 
E:|5--5--------2--2--0--0| 
 
Solo 
G:|---------9---11h9---------| 
D:|---9h11------------11h9--| 
A:|7-----------------------7--| 
E:|----------------------------| 
 
Title: Trading My Sorrows 
Artist: Darrell Evans  

		  

See also:

tabs Jars of Clay - Liquid tabs The Raveonettes - Hark! The Herald Angels Sing tabs The Raveonettes - the first noel tabs Hillsong - Hillsongs Hosanna tabs Falling Up - Broken Heart tabs Lee Greenwood - God Bless The Usa
e-chords

Other versions:

tabs Darrell Evans - Trading My Sorrows tabs Darrell Evans - Trading My Sorrows (ver. 2) tabs Darrell Evans - Trading My Sorrows (ver. 3)
auto scroll beats size up size down change color hide chords drawings
tab show chords e-chords YouTube Clip e-chords hide all tabs e-chords go to top tab

share