Darlia

Pandemonium

Darlia

tabs Expert expert

by  ROBEPOIEL

save to print version add songbook text version e-mail correct tuner
chordsukulelecavacokeyboardtabbassdrumsharmonicaflute Guitar Pro
close

there isn't a video lesson for this song

chords

Pandemonium

	  		

INTRO (0:00 - 0:15) LIGHT DISTORTION 
e|-X-X-----5------------------8--------3--0-0-----5------------------8--------3--| 
B|-X-X-----6--------9h10------8--------3--0-0-----6--------9h10------8--------3--| 
G|-X-X-----7-----10-----------9--------4--0-0-----7-----10-----------9--------4--| 
D|-X-X---7--------------------10-------5--0-0---7--------------------10-------5--|  
A|-X-X-5-----7/8-----------10--------5----0-0-5-----7/8-----------10--------5----| 
E|-X-X-------------------8-------0h3------0-0-------------------8-------0h3------| 

(HEAVY DISTORTION) 
   Dmin Fmaj Cmaj Gmaj 
e|-5----8----8----3----| 
B|-6----10---8----3----| 
G|-7----10---9----4----| X2 
D|-7----10---10---5----| 
A|-5----8----10---5----| 
E|-5----8----8----3----| 


VERSE (0:16 - 0:48) LIGHT DISTORTION 
e|-0-0-----5------------------8--------3--| 
B|-0-0-----6--------9h10------8--------3--| 
G|-0-0-----7-----10-----------9--------4--| X2 
D|-0-0---7--------------------10-------5--|  
A|-0-0-5-----7/8-----------10--------5----| 
E|-0-0-------------------8-------0h3------| 

e|-----5-X-X------8--X-X--------8--X-X-----3-X-X-| 
B|-----6-X-X------10-X-X--------8--X-X-----3-X-X-| 
G|-----7-X-X------10-X-X--------9--X-X-----4-X-X-| X2 
D|---7---X-X---10----X-X--------10-X-X-----5-X-X-|  
A|-5-----X-X-8-------X-X-----10----X-X---5---X-X-| 
E|-------X-X---------X-X---8-------X-X-3-----X-X-| 

e|-0-0-----5------------------8--------3--| 
B|-0-0-----6--------9h10------8--------3--| 
G|-0-0-----7-----10-----------9--------4--| X2 
D|-0-0---7--------------------10-------5--|  
A|-0-0-5-----7/8-----------10--------5----| 
E|-0-0-------------------8-------0h3------| 

   Dmin Fmaj Cmaj Gmaj 
e|-5----8----8----3----| 
B|-6----10---8----3----| 
G|-7----10---9----4----| X2 
D|-7----10---10---5----| 
A|-5----8----10---5----| 
E|-5----8----8----3----| 


Chorus (0:49 - 1:05) HEAVY DISTORTION 

   Dmin Fmaj Cmaj Gmaj 
e|-5----8----8----3----| 
B|-6----10---8----3----| 
G|-7----10---9----4----| X4 
D|-7----10---10---5----| 
A|-5----8----10---5----| 
E|-5----8----8----3----| 


verse 2 (1:06 - 1:21) LIGHT DISTORTION 
Guitar 1 
e|-----55-X-X------8-8--X-X--------8-8--X-X-----33-X-X-| 
B|-----66-X-X------1010-X-X--------8-8--X-X-----33-X-X-| 
G|-----77-X-X------1010-X-X--------9-9--X-X-----44-X-X-| X4 
D|---7----X-X---10------X-X--------1010-X-X-----55-X-X-|  
A|-5------X-X-8---------X-X-----10------X-X---5----X-X-| 
E|--------X-X-----------X-X---8---------X-X-3------X-X-| 

Guitar 2 LIGHT/HEAVY DISTORTION 
e|-----------------| 
B|-----------------| 
G|-------0---------| X8 
D|---0-3-----------| 
A|-5-----------3-5-| 
E|---------1-3-----| 


Chorus (1:22 - 1:54) HEAVY DISTORTION 

   Dmin Fmaj Cmaj Gmaj 
e|-5----8----8----3----| 
B|-6----10---8----3----| 
G|-7----10---9----4----| X8 
D|-7----10---10---5----| 
A|-5----8----10---5----| 
E|-5----8----8----3----| 


BRIDGE (1:55 - 2:11) 
Guitar 1  LIGHT DISTORTION 
   Dmin 
e|-5---| 
B|-6---| 
G|-7---| PALM MUTED 
D|-7---| THROUGHOUT BRIDGE 
A|-5---| 
E|-X---| 

Guitar 2 HEAVY DISTORTION 
e|-0-----| 
B|---0---| 
G|-----0-| PLAY AROUND ON THOSE 3 NOTES 
D|-------| CREATE FEEDBACK AS WELL 
A|-------| 
E|-------| 


Chorus (2:12 - 2:51) HEAVY DISTORTION 

   Dmin Fmaj Cmaj Gmaj            Dmin 
e|-5----8----8----3----|     e|---5---| 
B|-6----10---8----3----|     B|---6---| 
G|-7----10---9----4----| X8  G|---7---| 
D|-7----10---10---5----|     D|---7---| 
A|-5----8----10---5----|     A|---5---| 
E|-5----8----8----3----|     E|---X---| 

In verse 2, the second Guitar is very faint behind the lead so from what I could hear that is what I got. I'm  
not entirely sure its correct but its close enough, its also the same with the Bridge Guitars, they merge and 
are hard to distinguish. 

************************************ 

| /   slide up 
| \   slide down 
| h   hammer-on 
| p   pull-off 
| ~   vibrato 
| +   harmonic 
| x   Mute note 
| b   Bend 
| pb  Pre-bend 
| br  Bend release 
| pbr Pre-bend release 
| brb Bend release bend 

************************************ 
		  

See also:

tabs Ira! - Vitrine Viva tabs Deep Purple - Black Knight tabs Deep Purple - Demonds Eye tabs Deep Purple - Smoke on the Water (ver. 2) tabs Deep Purple - Clearly Quite Absurd tabs Ira! - Envelheço na Cidade (intro)
e-chords

Other versions:

tabs Kreator - Pandemonium tabs Darlia - Pandemonium
auto scroll beats size up size down change color hide chords drawings
tab show chords e-chords YouTube Clip e-chords hide all tabs e-chords go to top tab

share