Darlia

Dear Diary

Darlia

tabs

by  MARCNAGEL

save to print version add songbook text version e-mail correct tuner
chordsukulelecavacokeyboardtabbassdrumsharmonicaflute Guitar Pro
close

there isn't a video lesson for this song

chords

Dear Diary

	  		


Verse 
e|---------------------------------------------------------------------------| 
B|---------------------------------------------------------------------------| 
G|--------------------1------1--------4-----4------3------4------------------| 
D|-----7------7---------------------4-----4----------------------------------| 
A|---7------7-------2------2------2-----2--------4------4--------------------| 
E|-5------5-------0------0---------------------2-------2---------------------|  

e|---------------------------------------------------------------------------| 
B|---------------------------------------------------------------------------| 
G|--------------------1------1-------3------4-----4------3-------------------| 
D|-----7------7--------------------------------------------------------------| 
A|---7------7-------2------2-------4------4-----4------4---------------------| 
E|-5------5-------0------0-------2------2-----2------2-----------------------| 

e|---------------------------------------------------------------------------| 
B|---------------------------------------------------------------------------| 
G|--------------------1------1--------4-----4------4------4------------------| 
D|-----7------7---------------------4-----4----------------------------------| 
A|---7------7-------2------2------2-----2--------4------4--------------------| 
E|-5------5-------0------0---------------------2-------2---------------------|  

e|---------------------------------------------------------------------------| 
B|---------------------------------------------------------------------------| 
G|----------------11111111---4444444444444444--------------------------------| 
D|-----7------7--------------------------------------------------------------| 
A|---7------7-----22222222---4444444444444444--------------------------------| 
E|-5------5-------00000000---2222222222222222--------------------------------| 

Chorus 
e|---------------------------------------------------------------------------| 
B|---------------------------------------------------------------------------| 
G|------------11111111---44444444---44444444---------------------------------| 
D|-77777777--------------44444444--------------------------------------------| 
A|-77777777---22222222---22222222---44444444---------------------------------| 
E|-55555555---00000000--------------22222222---------------------------------| X4 


(I don't know the solo but feel free to add it if you work it out) 
		  

See also:

tabs Deep Purple - Smoke On The Water tabs Ira! - Núcleo Base ( Acústico MTV) tabs Deep Purple - When a Blind man cries tabs Deep Purple - Time To Kill tabs Ira! - O Girassol (intro) tabs Deep Purple - Smoke On The Water (solo Ver.2)
e-chords

Other versions:

tabs Britney Spears - Dear Diary tabs Pink - Dear Diary tabs Darlia - Dear Diary
auto scroll beats size up size down change color hide chords drawings
tab show chords e-chords YouTube Clip e-chords hide all tabs e-chords go to top tab

share