Darkness

Roaring Waters

Darkness

tabs

by  JESSGOMES

save to print version add songbook text version e-mail correct tuner
chordsukulelecavacokeyboardtabbassdrumsharmonicaflute Guitar Pro
close

there isn't a video lesson for this song

chords

Roaring Waters

	  		~INTRO~ 

e|--------------------------------------------------------------------------| 
B|--------------------------------------------------------------------------| 
G|--0~~---------------------------------------------------------------------| 
D|--0~~---------------------------------------------------------------------| 
G|--0~~-----------------------------------------------------------------12\-| 
D|--0~~---------------------------------------------------------------------| 

e|--------------------------------------------------------------------------| 
B|--------------------------------------------------------------------------| 
G|--------------------0------------------------------------0----------------| 
D|----------------------0------------------------------------0--------------| 
G|------0---3-0---0-------0-5-0-3----------0---3-0---0---------0--5-0-3-----| 
D|--3-----------3----------------------3-----------3------------------------| 

e|--------------------------------------------------------------------------| 
B|--------------------------------------------------------------------------| 
G|--------------------0------------------------------------0----------------| 
D|----------------------0------------------------------------0--------------| 
G|------0---3-0---0-------0-5-0-3----------0---3-0---0---------0--5-0-3-----| 
D|--3-----------3----------------------3-----------3------------------------| 

e|--------------------------------------------------------------------------| 
B|--------------------------------------------------------------------------| 
G|--------------------0------------------------------------0----------------| 
D|----------------------0------------------------------------0--------------| 
G|--12\-0---3-0---0-------0-5-0-3----------0---3-0---0---------0--5-0-3-----| 
D|--------------3----------------------3-----------3------------------------| 

e|--------------------------------------------------------------------------| 
B|--------------------------------------------------------------------------| 
G|--------------------0------------------------------------0----------------| 
D|----------------------0------------------------------------0--------------| 
G|--12\-0---3-0---0-------0-5-0-3----------0---3-0---0---------0--5-0-3-----| 
D|--------------3----------------------3-----------3------------------------| 


~VERSE ONE~ 

e|--------------------------------------------------------------------------| 
B|--------------------------------------------------------------------------| 
G|--3~~-3-3---3---3---3-3-3-5-5-5-5-3-3-3-3---3---3---3-3-3-5-5-5-5---------| 
D|--3~~-3-3---3---3---3-3-3-5-5-5-5-3-3-3-3---3---3---3-3-3-5-5-5-5---------| 
G|--3~~-3-3---3---3---3-3-3-5-5-5-5-3-3-3-3---3---3---3-3-3-5-5-5-5---------| 
D|--------------------------------------------------------------------------| 

e|--------------------------------------------------------------------------| 
B|--------------------------------------------------------------------------| 
G|--------------------0------------------------------------0----------------| 
D|----------------------0------------------------------------0--------------| 
G|------0---3-0---0-------0-5-0-3----------0---3-0---0---------0--5-0-3-----| 
D|--3-----------3----------------------3-----------3------------------------| 

e|--------------------------------------------------------------------------| 
B|--------------------------------------------------------------------------| 
G|--------------------0------------------------------------0----------------| 
D|----------------------0------------------------------------0--------------| 
G|--12\-0---3-0---0-------0-5-0-3----------0---3-0---0---------0--5-0-3-----| 
D|--------------3----------------------3-----------3------------------------| 

e|--------------------------------------------------------------------------| 
B|--------------------------------------------------------------------------| 
G|--3~~-3-3---3---3---3-3-3-5-5-5-5-3-3-3-3---3---3---3-3-3-5-5-5-5---------| 
D|--3~~-3-3---3---3---3-3-3-5-5-5-5-3-3-3-3---3---3---3-3-3-5-5-5-5---------| 
G|--3~~-3-3---3---3---3-3-3-5-5-5-5-3-3-3-3---3---3---3-3-3-5-5-5-5---------| 
D|--------------------------------------------------------------------------| 

e|------------------------------------------------/15-14~----13~------------| 
B|------13b15~-----13p10h13p10----------------------------------------------| 
G|-----------------------------13p10-11h12-10h11----------------------------| 
D|--------------------------------------------------------------------------| 
G|--------------------------------------------------------------------------| 
D|--0-----------------------------------------------------------------------| 


~Chorus~ 

e|--------------------------------------------------------------------------| 
B|--------------------------------------------------------------------------| 
G|--0~~--0--0----9-7-9-9b10---9b10---9br----7-----3-3-3-3---3~~--5----1--0--| 
D|--0~~--0--0~~-------------------------------8---3-3-3-3---3~~--5----1--0--| 
G|--0~~--0--0~~-----------------------------------3-3-3-3---3~~--5----1--0--| 
D|--------------------------------------------------------------------------| 

e|--------------------------------------------------------------------------| 
B|--------------------------------------------------------------------------| 
G|--0~~--0--0----9-7-9-9b10---9b10---9br----7-----3-3-3-3---3~~--5----1--0--| 
D|--0~~--0--0~~-------------------------------8---3-3-3-3---3~~--5----1--0--| 
G|--0~~--0--0~~-----------------------------------3-3-3-3---3~~--5----1--0--| 
D|--------------------------------------------------------------------------| 

e|--------------------------------------------------------------------------| 
B|--------------------------------------------------------------------------| 
G|--------------------------------------------------------------------------| 
D|--5~~---------------------------------------------------------------------| 
G|--5~~---------------------------------------------------------------------| 
D|--3~~---------------------------------------------------------------------| 


~POST Chorus~ 

e|--6p5p3p00--6p5p3p00--6p5p3p00-3-3~---6p5p3p00---6p5p3p00---6p5p3p00-3-3~-| 
B|--------------------------------------------------------------------------| 
G|--------------------------------------------------------------------------| 
D|--------------------------------------------------------------------------| 
G|--------------------------------------------------------------------------| 
D|--------------------------------------------------------------------------| 

e|--6p5p3p00--6p5p3p00--6p5p3p00-3-3~-------3-------------------------------| 
B|-------------------------------------3-------6p3--------------------------| 
G|-------------------------------------5b7---------5---3--5--3--------------| 
D|--------------------------------------------------------------5-----------| 
G|--------------------------------------------------------------------------| 
D|--------------------------------------------------------------------------| 

e|--------------------------------------------------------------------------| 
B|--------------------------------------------------------------------------| 
G|--------------------0------------------------------------0----------------| 
D|----------------------0------------------------------------0--------------| 
G|------0---3-0---0-------0-5-0-3----------0---3-0---0---------0--5-0-3-----| 
D|--3-----------3----------------------3-----------3------------------------| 

e|--------------------------------------------------------------------------| 
B|--------------------------------------------------------------------------| 
G|--------------------0------------------------------------0----------------| 
D|----------------------0------------------------------------0--------------| 
G|--12\-0---3-0---0-------0-5-0-3----------0---3-0---0---------0--5-0-3-----| 
D|--------------3----------------------3-----------3------------------------| 


~VERSE TWO~ 

e|--------------------------------------------------------------------------| 
B|--------------------------------------------------------------------------| 
G|--3~~-3-3---3---3---3-3-3-5-5-5-5-3-3-3-3---3---3---3-3-3-5-5-5-5---------| 
D|--3~~-3-3---3---3---3-3-3-5-5-5-5-3-3-3-3---3---3---3-3-3-5-5-5-5---------| 
G|--3~~-3-3---3---3---3-3-3-5-5-5-5-3-3-3-3---3---3---3-3-3-5-5-5-5---------| 
D|--------------------------------------------------------------------------| 

e|--------------------------------------------------------------------------| 
B|--------------------------------------------------------------------------| 
G|--------------------0------------------------------------0----------------| 
D|----------------------0------------------------------------0--------------| 
G|------0---3-0---0-------0-5-0-3----------0---3-0---0---------0--5-0-3-----| 
D|--3-----------3----------------------3-----------3------------------------| 

e|--------------------------------------------------------------------------| 
B|--------------------------------------------------------------------------| 
G|--------------------0------------------------------------0----------------| 
D|----------------------0------------------------------------0--------------| 
G|--12\-0---3-0---0-------0-5-0-3----------0---3-0---0---------0--5-0-3-----| 
D|--------------3----------------------3-----------3------------------------| 

e|--------------------------------------------------------------------------| 
B|--------------------------------------------------------------------------| 
G|--3~~-3-3---3---3---3-3-3-5-5-5-5-3-3-3-3---3---3---3-3-3-5-5-5-5---------| 
D|--3~~-3-3---3---3---3-3-3-5-5-5-5-3-3-3-3---3---3---3-3-3-5-5-5-5---------| 
G|--3~~-3-3---3---3---3-3-3-5-5-5-5-3-3-3-3---3---3---3-3-3-5-5-5-5---------| 
D|--------------------------------------------------------------------------| 

e|------------------------------------------------/15-14~----13~------------| 
B|--10-----10h13p10-10----10h13p10---8b--(slowly release)-------------------| 
G|--12bb14----------12b14---------------------------------------------------| 
D|--------------------------------------------------------------------------| 
G|--------------------------------------------------------------------------| 
D|--------------------------------------------------------------------------| 


~Chorus~ 

e|--------------------------------------------------------------------------| 
B|--------------------------------------------------------------------------| 
G|--0~~--0--0----9-7-9-9b10---9b10---9br----7-----3-3-3-3---3~~--5----1--0--| 
D|--0~~--0--0~~-------------------------------8---3-3-3-3---3~~--5----1--0--| 
G|--0~~--0--0~~-----------------------------------3-3-3-3---3~~--5----1--0--| 
D|--------------------------------------------------------------------------| 

e|--------------------------------------------------------------------------| 
B|--------------------------------------------------------------------------| 
G|--0~~--0--0----9-7-9-9b10---9b10---9br----7-----3-3-3-3---3~~--5----1--0--| 
D|--0~~--0--0~~-------------------------------8---3-3-3-3---3~~--5----1--0--| 
G|--0~~--0--0~~-----------------------------------3-3-3-3---3~~--5----1--0--| 
D|--------------------------------------------------------------------------| 


~POST Chorus DESCENDING THING~ 

e|--------------------------------------------------------------------------| 
B|--------------------------------------------------------------------------| 
G|--------------------------------------------------------------------------| 
D|--------------------------------------------------------------------------| 
G|--------------------------------------------------------------------------| 
D|--0-12-0-0-11-0-0-10-0-0-9-0-0-8-0-0-7-0-0-6-0-0-5-0-3---3---5-5----------| 

e|--------------------------------------------------------------------------| 
B|--------------------------------------------------------------------------| 
G|--------------------------------------------------------------------------| 
D|--(Sped up)---------------------------------------------------------------| 
G|--------------------------------------------------------------------------| 
D|--0-12-0-0-11-0-0-10-0-0-9-0-0-8-0-0-7-0-0-3---5-5------------------------| 

e|--------------------------------------------------------------------------| 
B|--------------------------------------------------------------------------| 
G|--------------------------------------------------------------------------| 
D|--------------------------------------------------------------------------| 
G|--------------------------------------------------------------------------| 
D|--0-12-0-0-11-0-0-10-0-0-9-0-0-8-0-0-7-0-0-6-0-0-5-0-3---3---5-5----------| 

e|--------------------------------------------------------------------------| 
B|--------------------------------------------------------------------------| 
G|--------------------------------------------------------------------------| 
D|--(Sped up)---------------------------------------------------------------| 
G|--------------------------------------------------------------------------| 
D|--0-12-0-0-11-0-0-10-0-0-9-0-0-8-0-0-7-0-0-3---5-5------------------------| 

e|--------------------------------------------------------------------------| 
B|--------------------------------------------------------------------------| 
G|--------------------------------------------------------------------------| 
D|--------------------------------------------------------------------------| 
G|--0-12-0-0-11-0-0-10-0-0-9-0-0-8-0-0-7-0-0-6-0-0-5-0-3---3---5-5----------| 
D|--------------------------------------------------------------------------| 

e|--------------------------------------------------------------------------| 
B|--------------------------------------------------------------------------| 
G|------(Sped up)-----------------------------------------------------------| 
D|--------------------------------------------------------------------------| 
G|--0-12-0-0-11-0-0-10-0-0-9-0-0-8-0-0-7-0-0-3---5-5------------------------| 
D|--------------------------------------------------------------------------| 

e|--------------------------------------------------------------------------| 
B|--------------------------------------------------------------------------| 
G|--------------------------------------------------------------------------| 
D|--------------------------------------------------------------------------| 
G|--0-12-0-0-11-0-0-10-0-0-9-0-0-8-0-0-7-0-0-6-0-0-5-0-3---3---5-5----------| 
D|--------------------------------------------------------------------------| 

e|--------------------------------------------------------------------------| 
B|--------------------------------------------------------------------------| 
G|------(Sped up)-----------------------------------------------------------| 
D|--------------------------------------------------------------------------| 
G|--0-12-0-0-11-0-0-10-0-0-9-0-0-8-0-0-7-0-0-3---5-5------------------------| 
D|--------------------------------------------------------------------------| 


~ANOTHER 'duludutut' THING~ 

e|--6p5p3p00--6p5p3p00--6p5p3p00-3-3~---6p5p3p00---6p5p3p00---6p5p3p00-3-3~-| 
B|--------------------------------------------------------------------------| 
G|--------------------------------------------------------------------------| 
D|--------------------------------------------------------------------------| 
G|--------------------------------------------------------------------------| 
D|--------------------------------------------------------------------------| 

e|--6b8~--6~--3----------3--------------------------------------------------| 
B|-----------------------3--------------------------------------------------| 
G|--------------5b7r5-3----5b7r5-3~--5b~----0-----0-----0-------------------| 
D|--------------------------------------------0-----0---------0-------------| 
G|----------------------------------------------0-----0---------------------| 
D|------------------------------------------------------------------3b5~----| 

e|--------------------------------------------------------------------------| 
B|--------------------------------------------------------------------------| 
G|--6--6--6--6--6--4----6----4--6--6b7~-6--7--9--9b10~----------------------| 
D|--------------------------------------------------------------------------| 
G|--------------------------------------------------------------------------| 
D|--------------------------------------------------------------------------| 


~VERSE THREE~ 

e|--------------------------------------------------------------------------| 
B|--------------------------------------------------------------------------| 
G|--3~~-3-3---3---3---3-3-3-5-5-5-5-3-3-3-3---3---3---3-3-3-5-5-5-5---------| 
D|--3~~-3-3---3---3---3-3-3-5-5-5-5-3-3-3-3---3---3---3-3-3-5-5-5-5---------| 
G|--3~~-3-3---3---3---3-3-3-5-5-5-5-3-3-3-3---3---3---3-3-3-5-5-5-5---------| 
D|--------------------------------------------------------------------------| 

e|--------------------------------------------------------------------------| 
B|--------------------------------------------------------------------------| 
G|--------------------0------------------------------------0----------------| 
D|----------------------0------------------------------------0--------------| 
G|------0---3-0---0-------0-5-0-3----------0---3-0---0---------0--5-0-3-----| 
D|--3-----------3----------------------3-----------3------------------------| 

e|--------------------------------------------------------------------------| 
B|--------------------------------------------------------------------------| 
G|--------------------0------------------------------------0----------------| 
D|----------------------0------------------------------------0--------------| 
G|--12\-0---3-0---0-------0-5-0-3----------0---3-0---0---------0--5-0-3-----| 
D|--------------3----------------------3-----------3------------------------| 

e|--------------------------------------------------------------------------| 
B|--------------------------------------------------------------------------| 
G|--3~~-3-3---3---3---3-3-3-5-5-5-5-3-3-3-3---3---3---3-3-3-5-5-5-5---------| 
D|--3~~-3-3---3---3---3-3-3-5-5-5-5-3-3-3-3---3---3---3-3-3-5-5-5-5---------| 
G|--3~~-3-3---3---3---3-3-3-5-5-5-5-3-3-3-3---3---3---3-3-3-5-5-5-5---------| 
D|--------------------------------------------------------------------------| 

e|--------------13p10----10~---10-15b17r15p13-------13----------------------| 
B|--pb15r13b15--------13----------------------15~---------------------------| 
G|-----------------------------------------------------12b14r12p10----------| 
D|--------------------------------------------------------------------------| 
G|--------------------------------------------------------------------------| 
D|--------------------------------------------------------------------------| 

e|--/15-14~----13~----------------------------------------------------------| 
B|--------------------------------------------------------------------------| 
G|--------------------------------------------------------------------------| 
D|--------------------------------------------------------------------------| 
G|--------------------------------------------------------------------------| 
D|--------------------------------------------------------------------------| 


~Chorus~ 

e|--------------------------------------------------------------------------| 
B|--------------------------------------------------------------------------| 
G|--0~~--0--0----9-7-9-9b10---9b10---9br----7-----3-3-3-3---3~~--5----1--0--| 
D|--0~~--0--0~~-------------------------------8---3-3-3-3---3~~--5----1--0--| 
G|--0~~--0--0~~-----------------------------------3-3-3-3---3~~--5----1--0--| 
D|--------------------------------------------------------------------------| 

e|--------------------------------------------------------------------------| 
B|--------------------------------------------------------------------------| 
G|--0~~--0--0----9-7-9-9b10---9b10---9br----7-----3-3-3-3---3~~--5----1--0--| 
D|--0~~--0--0~~-------------------------------8---3-3-3-3---3~~--5----1--0--| 
G|--0~~--0--0~~-----------------------------------3-3-3-3---3~~--5----1--0--| 
D|--------------------------------------------------------------------------| 


~DESCENDING OUTRO~ 

e|--------------------------------------------------------------------------| 
B|--------------------------------------------------------------------------| 
G|--------------------------------------------------------------------------| 
D|--------------------------------------------------------------------------| 
G|--0-12-0-0-11-0-0-10-0-0-9-0-0-8-0-0-7-0-0-6-0-0-5-0-3---3---5-5----------| 
D|--------------------------------------------------------------------------| 

e|--------------------------------------------------------------------------| 
B|--------------------------------------------------------------------------| 
G|------(Sped up)-----------------------------------------------------------| 
D|--------------------------------------------------------------------------| 
G|--0-12-0-0-11-0-0-10-0-0-9-0-0-8-0-0-7-0-0-3---5-5------------------------| 
D|--------------------------------------------------------------------------| 

e|--------------------------------------------------------------------------| 
B|--------------------------------------------------------------------------| 
G|--0-----------------------------------------------------------------------| 
D|--0-----------------------------------------------------------------------| 
G|--0-----------------------------------------------------------------------| 
D|--------------------------------------------------------------------------| 


************************************ 

| /   slide up 
| \   slide down 
| h   hammer-on 
| p   pull-off 
| ~   vibrato 
| +   harmonic 
| x   Mute note 
| b   Bend 
| pb  Pre-bend 
| br  Bend release 
| pbr Pre-bend release 
| brb Bend release bend 

************************************ 
		  

See also:

tabs Status Quo - Whatever you want tabs Queen - Love of my Life tabs The Cranberries - Ode to my Family tabs The Beatles - Yesterday tabs White Stripes - the seven nation army tabs Eric Clapton - Layla
e-chords

Other versions:

tabs Darkness - Roaring Waters
auto scroll beats size up size down change color hide chords drawings
tab show chords e-chords YouTube Clip e-chords hide all tabs e-chords go to top tab

share