Darkness

Growing on Me

Darkness

tabs

save to print version add songbook text version e-mail correct tuner
chordsukulelecavacokeyboardtabbassdrumsharmonicaflute Guitar Pro
close

there isn't a video lesson for this song

chords

Growing on Me

	  		 
Rhythm Guitar 1 
Drop D Tuning - DADGBE 
 
                                                     
E||-------------------|----5--------5-----------|--------------------0-----| 
B||-------------------|-------3--------3-----3--|-----------3-----------3--| 
G||----------------2--|----------2--------2-----|--------2-----2-----------| 
D||----------------0--|-------------------------|-----0-----------0--------| 
A||-------------------|-------------------------|--4-----------------------| 
D||-------------------|-------------------------|--------------------------| 
 
 
                                                                                
----5--------5-----------|--------------------0-----|----5--------5-----------| 
-------3--------3-----3--|-----------3-----------3--|-------3--------3-----3--| 
----------2--------2-----|--------2-----2-----------|----------2--------2-----| 
-------------------------|-----0-----------0--------|-------------------------| 
-------------------------|--4-----------------------|-------------------------| 
-------------------------|--------------------------|-------------------------| 
 
 
                                                                            
--------------------0----|---------------------|--------------------------| 
-----------3-------------|---------------------|-----------------------3--| 
--------2-----2----------|--2------2------2----|-----------------------2--| 
-----0-----------0-------|--2------2------2----|-----------------------0--| 
--4----------------------|--0------0------0----|-----5--5--0--5--5--0--0--| 
-------------------------|---------------------|--0--5--4--0--5--4--0--0--| 
 
 
                                                                  
--------------------|------------------------|------------------| 
--------------------|------------------------|------------------| 
--------------------|------------------------|------------------| 
--------------------|----0--0--7--7--9--9/---|------------------| 
--------------------|----0--0--7--7--9--9/---|------------------| 
--------------14/---|----0--0--7--7--9--9/---|------------------| 
 
 
                                                                            
------------------------|------------------------|------------------------| 
------------------------|------------------------|------------------------| 
------------------------|------------------------|------------------------| 
----0--0--7--7--9--9----|--7----7----------------|----0--0--7--7--9--9/---| 
----0--0--7--7--9--9----|--7----7----5--5--5--0--|----0--0--7--7--9--9/---| 
----0--0--7--7--9--9----|--7----7----5--5--4--0--|----0--0--7--7--9--9/---| 
 
 
                                                                      
-------------------|-----------------------|----3--3--3--3----3--2--| 
-------------------|-----------------------|----3--3--3--3----3--3--| 
----------------2--|----2--2----2--2--2----|----2--2--2--2----2--2--| 
----------------2--|----2--2----2--2--2----|----0--0--0--0----0--0--| 
----------------0--|----0--0----0--0--0----|------------------------| 
-------------------|-----------------------|------------------------| 
 
 
                                                                      
------------------------|------------------|------------------------| 
------------------------|------------------|------------------------| 
------------------------|------------------|------------------------| 
----0--0--7--7--9--9/---|------------------|----0--0--7--7--9--9----| 
----0--0--7--7--9--9/---|------------------|----0--0--7--7--9--9----| 
----0--0--7--7--9--9/---|------------------|----0--0--7--7--9--9----| 
 
 
                                                                       
------------------------|------------------------|-------------------| 
------------------------|------------------------|-------------------| 
------------------------|------------------------|----------------2--| 
--7----7----------------|----0--0--7--7--9--9/---|----------------2--| 
--7----7----5--5--5--0--|----0--0--7--7--9--9/---|----------------0--| 
--7----7----5--5--4--0--|----0--0--7--7--9--9/---|-------------------| 
 
 
                                                                            
-----------------------|------------------------|----5--------5-----------| 
-----------------------|------------------------|-------3--------3-----3--| 
----2--2----2--2--2----|---------------------2--|----------2--------2-----| 
----2--2----2--2--2----|-----2-------2----------|-------------------------| 
----0--0----0--0--0----|-----2-------2----------|-------------------------| 
-----------------------|--0--2----0--2----4-----|-------------------------| 
 
 
                                                       
--------------------0-----|-----5--------5-----------| 
-----------3--------------|--3-----3--------3-----3--| 
--------2-----2--------2--|-----------2--------2-----| 
-----0-----------0--------|--------------------------| 
--4-----------------------|--------------------------| 
--------------------------|--------------------------| 
 
 
                                                                                 
--------------------0-----|-----5--------5-----------|--------------------0----| 
-----------3-----------3--|--------3--------3-----3--|-----------3-------------| 
--------2-----2-----------|--2--------2--------2-----|--------2-----2----------| 
-----0-----------0--------|--------------------------|-----0-----------0-------| 
--4-----------------------|--------------------------|--4----------------------| 
--------------------------|--------------------------|-------------------------| 
 
 
                                                                          
----------------------|------------------------|------------------------| 
----------------------|------------------------|------------------------| 
--2----2--2------2----|--2--2--2--2------------|------------------------| 
--2----2--2------2----|--2--2--2--2------------|--4----4--5--5----5--5--| 
--0----0--0------0----|--0--0--0--0------------|--4----4--5--5----5--5--| 
----------------------|--------------14/-------|--4----4--5--5----5--5--| 
 
 
                                                                            
------------------------|------------------------|------------------------| 
------------------------|------------------------|------------------------| 
------------------------|------------------------|------------------------| 
--7----7--0--0----0--0--|--9----9--7--7----7--7--|--7----7--0--0----0-----| 
--7----7--0--0----0--0--|--9----9--5--5----5--5--|--7----7--0--0----0-----| 
--7----7--0--0----0--0--|--9----9--5--5----5--5--|--7----7--0--0----0--2--| 
 
 
                                                                            
------------------------|------------------------|------------------------| 
------------------------|------------------------|------------------------| 
------------------------|------------------------|------------------------| 
--4----4--5--5----5--5--|--7----7--0--0----0--0--|--7----7--7--7----7--7--| 
--4----4--5--5----5--5--|--7----7--0--0----0--0--|--7----7--7--7----7--7--| 
--4----4--5--5----5--5--|--7----7--0--0----0--0--|--7----7--7--7----7--7--| 
 
 
                                                                        
--------------------------|------------------------|------------------| 
--------------------------|------------------------|------------------| 
--------------------------|------------------------|------------------| 
--------------------------|----0--0--7--7--9--9/---|------------------| 
-----5--5--0--5--5--0--0--|----0--0--7--7--9--9/---|------------------| 
--0--5--4--0--5--4--0--0--|----0--0--7--7--9--9/---|------------------| 
 
 
                                                                            
------------------------|------------------------|------------------------| 
------------------------|------------------------|------------------------| 
------------------------|------------------------|------------------------| 
----0--0--7--7--9--9----|--7----7----------------|----0--0--7--7--9--9/---| 
----0--0--7--7--9--9----|--7----7----5--5--5--0--|----0--0--7--7--9--9/---| 
----0--0--7--7--9--9----|--7----7----5--5--4--0--|----0--0--7--7--9--9/---| 
 
 
                                                                      
-------------------|-----------------------|------------------------| 
-------------------|-----------------------|------------------------| 
----------------2--|----2--2----2--2--2----|---------------------2--| 
----------------2--|----2--2----2--2--2----|-----2-------2----------| 
----------------0--|----0--0----0--0--0----|-----2-------2----------| 
-------------------|-----------------------|--0--2----0--2----4-----| 
 
 
                                                                                 
----5--------5-----------|--------------------0-----|-----5--------5-----------| 
-------3--------3-----3--|-----------3--------------|--3-----3--------3-----3--| 
----------2--------2-----|--------2-----2--------2--|-----------2--------2-----| 
-------------------------|-----0-----------0--------|--------------------------| 
-------------------------|--4-----------------------|--------------------------| 
-------------------------|--------------------------|--------------------------| 
 
 
                                                                                 
--------------------0-----|-----5--------5-----------|--------------------0----| 
-----------3-----------3--|--------3--------3-----3--|-----------3-------------| 
--------2-----2-----------|--2--------2--------2-----|--------2-----2----------| 
-----0-----------0--------|--------------------------|-----0-----------0-------| 
--4-----------------------|--------------------------|--4----------------------| 
--------------------------|--------------------------|-------------------------| 
 
 
                                                                          
----------------------|------------------------|------------------------| 
----------------------|------------------------|------------------------| 
--2----2--2------2----|--2--2--2--2------------|------------------------| 
--2----2--2------2----|--2--2--2--2------------|--4----4--5--5----5--5--| 
--0----0--0------0----|--0--0--0--0------------|--4----4--5--5----5--5--| 
----------------------|--------------14/-------|--4----4--5--5----5--5--| 
 
 
                                                                            
------------------------|------------------------|------------------------| 
------------------------|------------------------|------------------------| 
------------------------|------------------------|------------------------| 
--7----7--0--0----0--0--|--9----9--7--7----7--7--|--7----7--0--0----0-----| 
--7----7--0--0----0--0--|--9----9--5--5----5--5--|--7----7--0--0----0-----| 
--7----7--0--0----0--0--|--9----9--5--5----5--5--|--7----7--0--0----0--2--| 
 
 
                                                                            
------------------------|------------------------|------------------------| 
------------------------|------------------------|------------------------| 
------------------------|------------------------|------------------------| 
--4----4--5--5----5--5--|--7----7--0--0----0--0--|--7----7--7--7----7--7--| 
--4----4--5--5----5--5--|--7----7--0--0----0--0--|--7----7--7--7----7--7--| 
--4----4--5--5----5--5--|--7----7--0--0----0--0--|--7----7--7--7----7--7--| 
 
 
                                                                  
--------------------------|------------------|------------------| 
--------------------------|------------------|------------------| 
--------------------------|------------------|------------------| 
--------------------------|------------------|------------------| 
-----5--5--0--5--5--0--0--|------------------|------------------| 
--0--5--4--0--5--4--0--0--|------------------|------------------| 
 
 
                                                                  
------------------|-------------------|-------------------------| 
------------------|-------------------|-------------------------| 
------------------|-------------------|-------------------------| 
------------------|----------------5--|----5--5--5--5--0--0--0--| 
------------------|----------------5--|----5--5--5--5--0--0--0--| 
------------------|----------------5--|----5--5--5--5--0--0--0--| 
 
 
                                                                                 
--------------------------|-------------------------|--------------------------| 
--------------------------|-------------------------|--------------------------| 
--------------------------|-------------------------|--------------------------| 
--7--7--7--7--7--0--0--0--|----5--5--5--5--0--0--0--|--7--7--7--7--7--7--7--7--| 
--7--7--7--7--7--0--0--0--|----5--5--5--5--0--0--0--|--7--7--7--7--7--7--7--7--| 
--7--7--7--7--7--0--0--0--|----5--5--5--5--0--0--0--|--7--7--7--7--7--7--7--7--| 
 
 
                                                                               
-------------------------|--------------------------|------------------------| 
-------------------------|--------------------------|------------------------| 
-------------------------|--------------------------|--9----9----9--9--9--9--| 
----5--5--5--5--0--0--0--|--7--7--7--7--7--0--0--0--|--9----9----9--9--9--9--| 
----5--5--5--5--0--0--0--|--7--7--7--7--7--0--0--0--|--7----7----7--7--7--7--| 
----5--5--5--5--0--0--0--|--7--7--7--7--7--0--0--0--|------------------------| 
 
 
                                                                       
-------------------|------------------------|------------------------| 
-------------------|------------------------|------------------------| 
--9----------------|------------------------|------------------------| 
--9----------------|--4----4--5--5----5--5--|--7----7--0--0----0--0--| 
--7----------------|--4----4--5--5----5--5--|--7----7--0--0----0--0--| 
-------------------|--4----4--5--5----5--5--|--7----7--0--0----0--0--| 
 
 
                                                                            
------------------------|------------------------|------------------------| 
------------------------|------------------------|------------------------| 
------------------------|------------------------|------------------------| 
--9----9--7--7----7--7--|--7----7--0--0----0-----|--4----4--5--5----5--5--| 
--9----9--5--5----5--5--|--7----7--0--0----0-----|--4----4--5--5----5--5--| 
--9----9--5--5----5--5--|--7----7--0--0----0--2--|--4----4--5--5----5--5--| 
 
 
                                                                              
------------------------|------------------------|--------------------------| 
------------------------|------------------------|--------------------------| 
------------------------|------------------------|--------------------------| 
--7----7--0--0----0--0--|--7----7--7--7----7--7--|--------------------------| 
--7----7--0--0----0--0--|--7----7--7--7----7--7--|-----5--5--0--5--5--0--2--| 
--7----7--0--0----0--0--|--7----7--7--7----7--7--|--0--5--4--0--5--4--0--2--| 
 
 
                                                                            
------------------------|------------------------|------------------------| 
------------------------|------------------------|------------------------| 
------------------------|------------------------|------------------------| 
--4----4--5--5----5--5--|--7----7--0--0----0--0--|--9----9--7--7----7--7--| 
--4----4--5--5----5--5--|--7----7--0--0----0--0--|--9----9--5--5----5--5--| 
--4----4--5--5----5--5--|--7----7--0--0----0--0--|--9----9--5--5----5--5--| 
 
 
                                                                            
------------------------|------------------------|------------------------| 
------------------------|------------------------|------------------------| 
------------------------|------------------------|------------------------| 
--7----7--0--0----0-----|--4----4--5--5----5--5--|--7----7--0--0----0--0--| 
--7----7--0--0----0-----|--4----4--5--5----5--5--|--7----7--0--0----0--0--| 
--7----7--0--0----0--2--|--4----4--5--5----5--5--|--7----7--0--0----0--0--| 
 
 
                                                                              
------------------------|--------------------------|------------------------| 
------------------------|--------------------------|------------------------| 
------------------------|--------------------------|------------------------| 
--7----7--7--7----7--7--|--------------------------|--4----4--5--5----5--5--| 
--7----7--7--7----7--7--|-----5--5--0--5--5--0--2--|--4----4--5--5----5--5--| 
--7----7--7--7----7--7--|--0--5--4--0--5--4--0--2--|--4----4--5--5----5--5--| 
 
 
                                                                            
------------------------|------------------------|------------------------| 
------------------------|------------------------|------------------------| 
------------------------|------------------------|------------------------| 
--7----7--0--0----0--0--|--9----9--7--7----7--7--|--7----7--0--0----0-----| 
--7----7--0--0----0--0--|--9----9--5--5----5--5--|--7----7--0--0----0-----| 
--7----7--0--0----0--0--|--9----9--5--5----5--5--|--7----7--0--0----0--2--| 
 
 
                                                                            
------------------------|------------------------|------------------------| 
------------------------|------------------------|------------------------| 
------------------------|------------------------|------------------------| 
--4----4--5--5----5--5--|--7----7--0--0----0--0--|--7----7--7--7----7--7--| 
--4----4--5--5----5--5--|--7----7--0--0----0--0--|--7----7--7--7----7--7--| 
--4----4--5--5----5--5--|--7----7--0--0----0--0--|--7----7--7--7----7--7--| 
 
 
                                                                              
--------------------------|------------------------|------------------------| 
--------------------------|------------------------|------------------------| 
--------------------------|------------------------|------------------------| 
--------------------------|--4----4--5--5----5--5--|--7----7--0--0----0--0--| 
-----5--5--0--5--5--0--2--|--4----4--5--5----5--5--|--7----7--0--0----0--0--| 
--0--5--4--0--5--4--0--2--|--4----4--5--5----5--5--|--7----7--0--0----0--0--| 
 
 
                                                                            
------------------------|------------------------|------------------------| 
------------------------|------------------------|------------------------| 
------------------------|------------------------|------------------------| 
--9----9--7--7----7--7--|--7----7--0--0----0-----|--4----4--5--5----5--5--| 
--9----9--5--5----5--5--|--7----7--0--0----0-----|--4----4--5--5----5--5--| 
--9----9--5--5----5--5--|--7----7--0--0----0--2--|--4----4--5--5----5--5--| 
 
 
                                                                               
------------------------|------------------------|--------------------------|| 
------------------------|------------------------|--------------------------|| 
------------------------|------------------------|--------------------------|| 
--7----7--0--0----0--0--|--7----7--7--7----7--7--|--------------------------|| 
--7----7--0--0----0--0--|--7----7--7--7----7--7--|-----5--5--0--5--5--0--2--|| 
--7----7--0--0----0--0--|--7----7--7--7----7--7--|--0--5--4--0--5--4--0--2--|| 
 
 
_______________________________________________________ 
Contribuição: Rodrigo Murai([email protected]) 

		  

See also:

tabs Eric Clapton - Wonderful Tonight tabs Eric Clapton - Hey, Hey tabs The Beatles - Yesterday tabs Eagles - Hotel California tabs Deep Purple - Highway Star tabs The Beatles - Blackbird
e-chords

Other versions:

tabs Darkness - Growing on Me tabs The Darkness - Growing On Me (ver. 1) tabs Darkness - Growing On Me (ver. 2) tabs The Darkness - Growing On Me (ver. 2) tabs The Darkness - Growing On Me Complete tabs The Darkness - Growing On Me Full Version
auto scroll beats size up size down change color hide chords drawings
tab show chords e-chords YouTube Clip e-chords hide all tabs e-chords go to top tab

share