Dance Gavin Dance

Jesus H. Mary

Dance Gavin Dance

tabs

by  JOV-CORREA

save to print version add songbook text version e-mail correct tuner
chordsukulelecavacokeyboardtabbassdrumsharmonicaflute Guitar Pro
close

there isn't a video lesson for this song

chords

Jesus H. Mary

	  		


INTRO (0:00-0:49) 
e|------------11--------------11--------------------13-15-----------------13-15--| 
B|----------8----8----------8----8-----------------------------------------------| 
G|--8--8-8-8--------8--8-8-8--------12--12-12-12-15-------12--12-12-12-15--------| 
D|-------------------------------------------------------------------------------| 
A|-------------------------------------------------------------------------------| 
E|-------------------------------------------------------------------------------| 
                                                                                 (x6) 
e|------------10------------10-----------------13-15----------------13-15--------| 
B|----------8----8--------8----8-------------------------------------------------| 
G|--7--7-7-7------7--7-7-7------------------15-------------------15--------------| 
D|------------------------------13--13-13-13---------13--13-13-13----------------| 
A|-------------------------------------------------------------------------------| 
E|-------------------------------------------------------------------------------| 


POST INTRO PT.1 (0:50-1:05) 
e|---------13--------------17--13----------13-----------------------------------------------------| 
B|-15--13------13--15--11----------15--13------13--15-16--18-16-15-13-15-16-(15-second time only)-| 
G|------------------------------------------------------------------------------------------------| 
D|------------------------------------------------------------------------------------------------|(x2) 
A|------------------------------------------------------------------------------------------------| 
E|------------------------------------------------------------------------------------------------| 

POST INTRO PT.2 (1:06-1:20) 
e|------------|---------------------------|----------|--------------| 
B|------------|---------------------------|----------|--------------| 
G|--7--5-5----|------7--5-5-----------b^7-|-7--5-5---|------10--12--| 
D|----------5-|(x6)----------5--5-/-8-----|--------5-|(x6)----------| 
A|------------|---------------------------|----------|--------------| 
E|------------|---------------------------|----------|--------------| 


FIRST SECTION (1:21-1:47 
e|----------------------------------------------------| 
B|----------------------------------------------------| 
G|--7-7-7--8-8-8--10-10-10--12-12-12--10-10-10-8-8-8--| 
D|----------------------------------------------------|(x3) 
A|----------------------------------------------------| 
E|----------------------------------------------------| 

e|-----------------------------------------------------| 
B|-----------------------------------------------------| 
G|--7-7-7--8-8-8--10-10-10--12-12-12--12h14p12-7-/-10--| 
D|-----------------------------------------------------|(x4)  
A|-----------------------------------------------------| 
E|-----------------------------------------------------| 

e|-----------------------------------------------| 
B|---------------------------------------12------| 
G|--7-7-7--8-8-8--10-10-10--12-12-12--14------7--| 
D|--------------------------------------------5--| 
A|--------------------------------------------6--| 
E|-----------------------------------------------| 


SECOND SECTION (1:48-2:40) 
e|--10--8------13--| 
B|---------10------| 
G|-----------------| 
D|-----------------| 
A|-----------------| 
E|-----------------| 

e|-------------------------------------------------------| 
B|-------------------------------------------------------| 
G|--10--5-5--5-/-7----10--5-5-5--5-/-7----3---7---3---7--| 
D|-------------------------------------------------------|(x3) 
A|--8---3-3--3-/-5----8---3-3-3--3-/-5----1---5---1---5--| 
E|-------------------------------------------------------| 

e|-------------------------------------------------------| 
B|-------------------------------------------------------| 
G|--10--5-5--5-/-7----10-/-12-/-14-/-15---3---7---3---7--| 
D|-------------------------------------------------------| 
A|--8---3-3--3-/-5----8--/-10-/-12-/-13---1---5---1---5--| 
E|-------------------------------------------------------| 


PRE ENDING (2:41-3:06 
e|---------------------------------------------------------------| 
B|-----8--10--10--8h10p8h10h11p10p8-----8--10--10--11--13-11-10--| 
G|--8--------------------------------8---------------------------| 
D|---------------------------------------------------------------|(x2) 
A|---------------------------------------------------------------| 
E|---------------------------------------------------------------| 

ENDING (3:07-3:25) 
e|------------------------------------------------------------------------------------------------| 
B|------------------------------------------------------------------------------------------------| 
G|---12h14p12-17-12h14p12----12h14p12-17-12h14p12----12h14p12-17-12h14p12----12h14p12-17-12h14p12-| 
D|13----------------------13----------------------12----------------------12----------------------|(x2) 
A|------------------------------------------------------------------------------------------------| 
E|------------------------------------------------------------------------------------------------| 

e|------------| 
B|------------| 
G|--13-13-13--| 
D|------------| 
A|------------| 
E|------------| 



************************************ 

| /   slide up 
| \   slide down 
| h   hammer-on 
| p   pull-off 

************************************ 
		  

See also:

tabs Good Charlotte - Predictable tabs No Doubt - don't speak solo tabs Paramore - Crushcrushcrush tabs Red Hot Chili Peppers - Otherside (intro) tabs Good Charlotte - Hold On tabs Incubus - I Miss You
e-chords

Other versions:

tabs Dance Gavin Dance - Jesus H. Mary
auto scroll beats size up size down change color hide chords drawings
tab show chords e-chords YouTube Clip e-chords hide all tabs e-chords go to top tab

share