Dan Sartain

Indian Massacre

Dan Sartain

tabs

by  JESSGOMES

save to print version add songbook text version e-mail correct tuner
chordsukulelecavacokeyboardtabbassdrumsharmonicaflute Guitar Pro
close

there isn't a video lesson for this song

chords

Indian Massacre

	  		

Tuning: EADGBE 

Verse /Intro 

e|------------------------------------------------------------------| 
B|------------------------------------------------------------------| 
G|---9----9---9--9---9---9--9--9--9--9--9---/-----13----------------| 
D|---9----9---9--9---9---9--9--9--9--9--9---/-----13----------------| 
A|---7----7---7--7---7---7--7--7--7--7--7---/-----11----------------| 
E|---0----0---0--0---0---0--0--0--0--0--0---/-----0-----------------| 
    
e|-----------------------------------------------------------------| 
B|-----------------------------------------------------------------| 
G|-----------------------------------------------------------------| 
D|-----------------------------------------------------------------| 
A|--11--11--11---11---11---11-----9--9---9---9---9---9-------------| 
E|---9---9---9---9----9----9------7--7---7---7---7---7-------------| 

Chorus 
e|------------------------------------------------------------------| 
B|------------------------------------------------------------------| 
G|------------------------------------------------------------------| 
D|------------------------------------------------------------------| 
A|---7---7---7---7---7---7----7---7---7---7---7---7-----------------| 
E|---5---5---5---5---5---5----5---5---5---5---5---5-----------------| 

e|-----------------------------------------------------------------| 
B|-----------------------------------------------------------------| 
G|-----------------------------------------------------------------| 
D|---9---9---9-/--13-----------------------------------------------| 
A|---7---7---7-/--11-----11---11--11--11--11--11-------------------|  X2 
E|---0---0---0-/--0-------9---9---9---9---9---9--------------------| 


e|-----------------------------------------------------------------| 
B|-----------------------------------------------------------------| 
G|-----------------------------------------------------------------| 
D|---9---9---9-/--13-----------------------------------------------| 
A|---7---7---7-/--11-----11---11--11--11--11--11-------------------|  
E|---0---0---0-/--0-------9---9---9---9---9---9--------------------| 





e|-----------------------------------------------------------------| 
B|-----------------------------------------------------------------| 
G|-----------------------------------------------------------------| 
D|-----------------------------------------------------------------| 
A|-7---7---7---7---7---7---9---9---9---9---9---9-------------------| 
E|-5---5---5---5---5---5---7---7---7---7---7---7-------------------| 







Middle 8 / Bridge 

e|-------------------------------------------------------------------| 
B|-------------------------------------------------------------------| 
G|-------------------------------------------------------------------| 
D|-13---------13-----------13------------13--------------------------| 
A|-11---13----11--- 13-----11-------13---11-------13-----------------| 
E|------11----------11--------------11------------11-----------------| 


e|---------------------------------------------------------------------| 
B|---------------------------------------------------------------------| 
G|---9----9---9--9---9---9--9--9--9--9--9------------------------------| 
D|---9----9---9--9---9---9--9--9--9--9--9------------------------------| 
A|---7----7---7--7---7---7--7--7--7--7--7------------------------------| 
E|---0----0---0--0---0---0--0--0--0--0--0------------------------------|  
		  

auto scroll beats size up size down change color hide chords drawings
tab show chords e-chords YouTube Clip e-chords hide all tabs e-chords go to top tab

share