Da Sparkz

We Are The Bomb

Da Sparkz

tabs

by  BILLYNAPP11

save to print version add songbook text version e-mail correct tuner
chordsukulelecavacokeyboardtabbassdrumsharmonicaflute Guitar Pro
close

there isn't a video lesson for this song

chords

We Are The Bomb

	  		Intro: 
E---------------------------------------------------- 
B---------------------------------------------------- 
G----------------------------------------------------                  
D-----------9---------------10-9---------9----------- 
A-----9-12-----------9-12---------9-12----12--9------ 
E---------------------------------------------------- 
do intro three times 
1st:gutitar alone 
2nd:bass comes in 
3rd:drums come in 
  
we are the, we are the bomb, we are the, bo-omb 
D----------9---------10-9-------9-------------------- 
A----9-12-----9-12---------9-12----12--9-------------  
Do this twice 

Drum outro 


		  

See also:

tabs Creedence Clearwater Revival - Have You Ever Seen The Rain tabs Jimi Hendrix - Manic Depression tabs Wild Cherry - Play That Funky Music White Boy tabs Lynyrd Skynyrd - The Needle and the Spoon tabs Boston - More Than A Feeling tabs Creedence Clearwater Revival - Commotion
e-chords

Other versions:

tabs Da Sparkz - We Are The Bomb
auto scroll beats size up size down change color hide chords drawings
tab show chords e-chords YouTube Clip e-chords hide all tabs e-chords go to top tab

share