Cutoff

Jawbox

Cutoff

tabs

by  XXMOZXX

save to print version add songbook text version e-mail correct tuner
chordsukulelecavacokeyboardtabbassdrumsharmonicaflute Guitar Pro
close

there isn't a video lesson for this song

chords

Jawbox

	  		intro. 
------------------------------------------------------------------------------ 
--12-12-12-12-12-12-12-12-12-------------------------------------------------- 
--14-14-14-14-14-14-14-14-14----------bend this part up---------------------- 
--------------------------------------esspecially the 14--------------------- 
--------------------------------------repeat this a few times---------------- 
--------------------------------------(listen to the song)------------------- 



----------------------------------------------------------------------------- 
----------------------------------------------------------------------------- 
---------------------------------------------------------------------------- 
---------------------------------------repeat this part as many------------- 
----4-4-4-4-4-4-4-4-4-4-4-4-4-4-4------as needed.(once again---------------- 
----2-2-2-2-2-2-2-2-2-2-2-2-2-2-2------listen to the song)----------------- 


(singing starts) 

----------------------------------------------------------------------------- 
----------------------------------------------------------------------------- 
----------------------------------------------------------------------------- 
-----------------------------------------4--4--6-------repeat this--------- 
--------------4-4---4-4-4---4-4-4--------2--2--4------a couple times--------- 
--------------2-2---2-2-2---2-2-2-------------------------------------------- 


(this is the part were he says CUT OFF) 

------------------------------------------------------------------------------ 
------------------------------------------------------------------------------ 
------------------------------------------------------------------------------ 
----7-7-7-7-7-7-7-7-7-7-7-7--------------------------------------------------- 
----5-5-5-5-5-5-5-5-5-5-5-5------------------------repeat--------------------- 
------------------------------------------------------------------------------ 


------------------------------------------------------------------------------ 
----------------------------------------------------------------------------- 
----------------------------------------------------------------------------- 
---------------------------------------4-4--6-------------------------------- 
-------2-2---2-2-2--4--------4-4-4-----2-2--4-------------------------------- 
-------0-0---0-0-0--2--------2-2-2------------------------------------------- 
		  

See also:

tabs Blink 182 - I miss you (solo) tabs Green Day - blvd of broken dreams tabs Afi - Miss murder tabs Goo Goo Dolls - Name tabs Matchbook Romance - Monsters tabs Blink 182 - All The Small Things
e-chords

Other versions:

tabs Cutoff - Jawbox
auto scroll beats size up size down change color hide chords drawings
tab show chords e-chords YouTube Clip e-chords hide all tabs e-chords go to top tab

share