Cul De Sac

Sakhalin

Cul De Sac

tabs

by  LUCICAMARGO

save to print version add songbook text version e-mail correct tuner
chordsukulelecavacokeyboardtabbassdrumsharmonicaflute Guitar Pro
close

there isn't a video lesson for this song

chords

Sakhalin

	  		

E|---------------------------| 
B|-------------------------7-| 
G|-------------------6-6-5---|x4 
D|-------------4-3-1---------| 
A|-------4-3-1---------------| 
E|-0-2-3---------------------| 
                                  x3 
E|---------------------------| 
B|---------------------------| 
G|-------------------6-6-5-4-| 
D|-------------4-3-1---------| 
A|-------4-3-1---------------| 
E|-0-2-3---------------------| 
After it: 

E|---------------------------| 
B|---------------------------| 
G|-3--3---6-6-5--3--3--------| 
D|-1-------------1-----------| x(Many times) 
A|-1-------------1-----------| 
E|---------------------------| 

Next riff: 

E|-6--6---5-6-7-6-5-6----------------------------------------------------| 
B|--------------------6--6--5-6-7-6-5-6-7--7---6-7-9-7-6-7-4------4------| 
G|-----------------------------------------------------------3--3---3----| 
D|-----------------------------------------------------------------------| 
A|-----------------------------------------------------------------------| 
E|-----------------------------------------------------------------------| 

E|-6--6---5-6-7-6-5-6-11-------------------------------------------------| 
B|----------------------7--5-6-7-6-5-6-7--7---6-7-9-7-6-7-4-----------4--| 
G|---------------------------------------------------------------3--3---3| 
D|-----------------------------------------------------------------------| 
A|-----------------------------------------------------------------------| 
E|-----------------------------------------------------------------------| 
That's all for now 
		  

See also:

tabs Deep Purple - Smoke on the water (ver. 3) tabs Albert Hammond Jr - Holiday tabs Deep Purple - When a Blind man cries tabs Deep Purple - The Unwritten Law tabs Deep Purple - Highway Star tabs Ira! - Núcleo Base ( Acústico MTV)
e-chords

Other versions:

tabs Cul De Sac - Sakhalin
auto scroll beats size up size down change color hide chords drawings
tab show chords e-chords YouTube Clip e-chords hide all tabs e-chords go to top tab

share