Cueio Limão

Cair e Levantar

Cueio Limão

tabs

save to print version add songbook text version e-mail correct tuner
chordsukulelecavacokeyboardtabbassdrumsharmonicaflute Guitar Pro
close

there isn't a video lesson for this song

chords

Cair e Levantar

	  		 
. - Abafar 
 
Intro 
1ª Guitar - Riff 1 - X2 
e|-------------------------------------------------| 
B|-------------------------------------------------| 
G|-------------------------------------------------| 
D|-------------------------------------------------| 
A|--9--9--9--9--7--7--7--7--6--6--6--6--4--4--4--4-| 
E|77-77-77-77-00-00-00-00-44-44-44-44-22-22-22-22--| 
  .. .. .. .. .. .. .. .. .. .. .. .. .. .. .. ..  
2ªGuitar - Riff 2 - X1 
e|------------------------------------------------- 
B|------------------------------------------------- 
G|--4--4--4--4--4--4--4--4--4--4--4--4--3--3--3--3- 
D|44-44-44-44-44-44-44-44-44-44-44-44-44-44-44-44-- 
A|------------------------------------------------- 
E|------------------------------------------------- 
  .. .. .. .. .. .. .. .. .. .. .. .. .. .. .. ..   
-------------| 
-------------| 
-3-3-3-3/4/3-| 
-------------| 
-------------| 
-------------| 
 
Cair e Levantar e não ter que explicar 
Pode ser mais fácil pra você 
Lutar e vencer arriscando a perder 
Como poderiam não crer 
 
B5           E 
Quando eu ti vi 
     G#5       F#5 
Eu sabia que seria assim 
B5        E         G#5 
Não desistir do que quer  
       F#5 
Até chegar ao fim  
B5       E        G#5    F#5 
E ter com quem contar  
B5     E    G#5   F#5 
Pra correr atrás 
                               Riff 3 
Refrão                         2ª Guitar             
E     F#5       G#5  Riff 3    B|-9---12---------| 
Sem você não conseguiria       G|11b----12-11-9~-| 
E      F#5    G#5 Riff 4 
Não querer perder              Riff 4 
E     F#5  G#5 F#5 E            1ª Guitar 
Não sabia o que viria          G|88--66--99--| 
E         F#5                  D|------------| 
Eu quis pagar pra ver          A|66--44--77--| 
 
Repete intro 2 vezes 
 
B5    E         G#5 
Agora sim nós podemos 
      F#5 
Olhar para trás 
B5     E           G#5 
Se orgulhar do que fez 
         F#5 
E querer fazer mais 
B5  E      G#5  F#5 
Desatar os nós 
B5   E     G#5  F#5 
Depende de nós 
 
Repete refrão 
 
Final - 2ª Guitar 
e|------------------------------------------------ 
B|------------------------------------------------ 
G|4-4-4-4-4-4-6-8-4-4-4-4-4-4-6-8-4-4-4-4-4-4-6-8- 
D|------------------------------------------------ 
A|2-2-2-2-2-2-4-6-2-2-2-2-2-2-4-6-2-2-2-2-2-2-4-6- 
E|------------------------------------------------ 
----------| 
----------| 
--8/6-9-8-| 
----------| 
--6/4-7-6-| 
----------| 
 
e|-------------------------------------------------- 
B|-------------------------------------------------- 
G|4-4-4-4-6-6-8-8-9-9-9-9-118-8-8-8-9-6-6-6-6-8-8-9- 
D|-------------------------------------------------- 
A|2-2-2-2-4-4-6-6-7-7-7-7-9-6-6-6-6-7-4-4-4-4-6-6-7- 
E|-------------------------------------------------- 
---------------------| 
---------------------| 
--9-111111119-8-6-4-4| 
---------------------| 
--7-9-9-9-9-7-6-4-2-2| 
---------------------| 
 
Final - 1ª Guitar - B5, E, G#5, F#5 - X2 
 
G#5    F#5  B5 
Cair e Levantaaaaaar 
 
_______________________________________________________ 
Contribuição: Marcelo([email protected]) 

		  

Full key step upFull key step up
Half key step upHalf key step up
Half key step downHalf key step down
Full key step downFull key step down
hide glossary

See also:

tabs Forfun - Minha Formatura tabs Nx Zero - Razoes e emoçoes tabs Nx Zero - Razões e emoções (acústica) tabs Nx Zero - Tudo Passa tabs Strike - Paraíso Proibido tabs Cueio Limão - Cair e Levantar
e-chords

Other versions:

tabs Cueio Limão - Cair e Levantar
auto scroll beats size up size down change color hide chords drawings
tab show chords e-chords YouTube Clip e-chords hide all tabs e-chords go to top tab

share