Cro

Whatever

Cro

tabs

by  IRONPOWER4EVER

save to print version add songbook text version e-mail correct tuner
chordsukulelecavacokeyboardtabbassdrumsharmonicaflute Guitar Pro
close

there isn't a video lesson for this song

chords

Whatever

	  		Hey Leute! 
Das ist meine Version von Cro - Whatever. 
Der Song ist nicht so schwer und ziemlich simpel. 
Die Tabs eignen sich für Akkustik- und E-Gitarre. 
Viel Spaß beim Lernen! 

Tuning: Standart 

Intro 

"Das war mit Abstand die schlimmste Woche..." 

e|------------------------| 
B|------------------------| 
G|-5-5~-------------------| 
D|-5-5~--7-7~--5-5~--3-3~-| x2 Up-down 
A|-3-3~--7-7~--5-5~--3-3~-| 
E|-------5-5~--3-5~--1-1~-| 

Interlude 

"...ah, whatever!" 

e|-----------------------| 
B|-----------------------| 
G|-----------------------| 
D|-3-3--3-3-3-3--3-3--3--| x2 
A|-3-3--3-3-3-3--3-3--3--| 
E|-1-1--1-1-1-1--1-1--1--| 

Refrain 

"Bye,bye..." 

e|------------------------------------------------------------------------------------| 
B-------------------------------------------------------------------------------------| 
G|-5-5--5-5-5-5--5-5--5-5-5-5---------------------------------------------------------| 
D|-5-5--5-5-5-5--5-5--5-5-5-5--7-7--7-7-7-7--7-7--7-7-7-7--5-5--5-5-5-5--5-5--5-5-5-5-| 
A|-3-3--3-3-3-3--3-3--3-3-3-3--7-7--7-7-7-7--7-7--7-7-7-7--5-5--5-5-5-5--5-5--5-5-5-5-| 
E|-----------------------------5-5--5-5-5-5--5-5--5-5-5-5--3-3--3-3-3-3--3-3--3-3-3-3-| 

e|----------------------------| 
B|----------------------------| 
G|----------------------------| 
D|-3-3--3-3-3-3--3-3--3-3-3-3-| x2 (Alles) 
A|-3-3--3-3-3-3--3-3--3-3-3-3-| 
E|-1-1--1-1-1-1--1-1--1-1-1-1-| 

Verse 

"In den Spiegel Mann,..." 

e|------------------------------------------------------------------------| 
B|------------------------------------------------------------------------| 
G|-5--5-5--5--5-5--5--5-5--5--5-5-5-5-------------------------------------| 
D|-5--5-5--5--5-5--5--5-5--5--5-5-5-5--7--7-7--7--7-7--7--7-7--7--7-7-7-7-| 
A|-3--5-5--3--3-3--3--3-3--3--5-5-5-5--7--7-7--7--7-7--7--7-7--7--7-7-7-7-| 
E|-------------------------------------5--5-5--5--5-5--5--5-5--5--5-5-5-5-| 
PM    . .     . .     . .                 . .     . .     . . 

e|------------------------------------------------------------------------| 
B|------------------------------------------------------------------------| 
G|------------------------------------------------------------------------| 
D|-5--5-5--5--5-5--5--5-5--5--5-5-5-5--3--3-3--3--3-3--3--3-3--3--3-3-3-3-| x4 (Alles) 
A|-5--5-5--5--5-5--5--5-5--5--5-5-5-5--3--3-3--3--3-3--3--3-3--3--3-3-3-3-| 
E|-3--3-3--3--3-3--3--3-3--3--3-3-3-3--1--1-1--1--1-1--1--1-1--1--1-1-1-1-| 
PM    . .     . .     . .                 . .     . .     . . 

Refrain 

"Bye,bye..." 

e|------------------------------------------------------------------------------------| 
B-------------------------------------------------------------------------------------| 
G|-5-5--5-5-5-5--5-5--5-5-5-5---------------------------------------------------------| 
D|-5-5--5-5-5-5--5-5--5-5-5-5--7-7--7-7-7-7--7-7--7-7-7-7--5-5--5-5-5-5--5-5--5-5-5-5-| 
A|-3-3--3-3-3-3--3-3--3-3-3-3--7-7--7-7-7-7--7-7--7-7-7-7--5-5--5-5-5-5--5-5--5-5-5-5-| 
E|-----------------------------5-5--5-5-5-5--5-5--5-5-5-5--3-3--3-3-3-3--3-3--3-3-3-3-| 

e|----------------------------| 
B|----------------------------| 
G|----------------------------| 
D|-3-3--3-3-3-3--3-3--3-3-3-3-| x2 (Alles) 
A|-3-3--3-3-3-3--3-3--3-3-3-3-| 
E|-1-1--1-1-1-1--1-1--1-1-1-1-| 

Verse 

"In den Spiegel Mann,..." 

e|------------------------------------------------------------------------| 
B|------------------------------------------------------------------------| 
G|-5--5-5--5--5-5--5--5-5--5--5-5-5-5-------------------------------------| 
D|-5--5-5--5--5-5--5--5-5--5--5-5-5-5--7--7-7--7--7-7--7--7-7--7--7-7-7-7-| 
A|-3--5-5--3--3-3--3--3-3--3--5-5-5-5--7--7-7--7--7-7--7--7-7--7--7-7-7-7-| 
E|-------------------------------------5--5-5--5--5-5--5--5-5--5--5-5-5-5-| 
PM    . .     . .     . .                 . .     . .     . . 

e|------------------------------------------------------------------------| 
B|------------------------------------------------------------------------| 
G|------------------------------------------------------------------------| 
D|-5--5-5--5--5-5--5--5-5--5--5-5-5-5--3--3-3--3--3-3--3--3-3--3--3-3-3-3-| x4 (Alles) 
A|-5--5-5--5--5-5--5--5-5--5--5-5-5-5--3--3-3--3--3-3--3--3-3--3--3-3-3-3-| 
E|-3--3-3--3--3-3--3--3-3--3--3-3-3-3--1--1-1--1--1-1--1--1-1--1--1-1-1-1-| 
PM    . .     . .     . .                 . .     . .     . . 

Refrain 

"Bye,bye..." 

e|------------------------------------------------------------------------------------| 
B-------------------------------------------------------------------------------------| 
G|-5-5--5-5-5-5--5-5--5-5-5-5---------------------------------------------------------| 
D|-5-5--5-5-5-5--5-5--5-5-5-5--7-7--7-7-7-7--7-7--7-7-7-7--5-5--5-5-5-5--5-5--5-5-5-5-| 
A|-3-3--3-3-3-3--3-3--3-3-3-3--7-7--7-7-7-7--7-7--7-7-7-7--5-5--5-5-5-5--5-5--5-5-5-5-| 
E|-----------------------------5-5--5-5-5-5--5-5--5-5-5-5--3-3--3-3-3-3--3-3--3-3-3-3-| 

e|----------------------------| 
B|----------------------------| 
G|----------------------------| 
D|-3-3--3-3-3-3--3-3--3-3-3-3-| x2 (Alles) 
A|-3-3--3-3-3-3--3-3--3-3-3-3-| 
E|-1-1--1-1-1-1--1-1--1-1-1-1-| 

Verse 

"Ich wache auf,..." 

e|------------------------------------------------------------------------| 
B|------------------------------------------------------------------------| 
G|-5--5-5--5--5-5--5--5-5--5--5-5-5-5-------------------------------------| 
D|-5--5-5--5--5-5--5--5-5--5--5-5-5-5--7--7-7--7--7-7--7--7-7--7--7-7-7-7-| 
A|-3--5-5--3--3-3--3--3-3--3--5-5-5-5--7--7-7--7--7-7--7--7-7--7--7-7-7-7-| 
E|-------------------------------------5--5-5--5--5-5--5--5-5--5--5-5-5-5-| 
PM    . .     . .     . .                 . .     . .     . . 

e|------------------------------------------------------------------------| 
B|------------------------------------------------------------------------| 
G|------------------------------------------------------------------------| 
D|-5--5-5--5--5-5--5--5-5--5--5-5-5-5--3--3-3--3--3-3--3--3-3--3--3-3-3-3-| x4 (Alles) 
A|-5--5-5--5--5-5--5--5-5--5--5-5-5-5--3--3-3--3--3-3--3--3-3--3--3-3-3-3-| 
E|-3--3-3--3--3-3--3--3-3--3--3-3-3-3--1--1-1--1--1-1--1--1-1--1--1-1-1-1-| 
PM    . .     . .     . .                 . .     . .     . . 

Refrain 

"Bye,bye..." 

e|------------------------------------------------------------------------------------| 
B-------------------------------------------------------------------------------------| 
G|-5-5--5-5-5-5--5-5--5-5-5-5---------------------------------------------------------| 
D|-5-5--5-5-5-5--5-5--5-5-5-5--7-7--7-7-7-7--7-7--7-7-7-7--5-5--5-5-5-5--5-5--5-5-5-5-| 
A|-3-3--3-3-3-3--3-3--3-3-3-3--7-7--7-7-7-7--7-7--7-7-7-7--5-5--5-5-5-5--5-5--5-5-5-5-| 
E|-----------------------------5-5--5-5-5-5--5-5--5-5-5-5--3-3--3-3-3-3--3-3--3-3-3-3-| 

e|----------------------------| 
B|----------------------------| 
G|----------------------------| 
D|-3-3--3-3-3-3--3-3--3-3-3-3-| x4 (Alles) 
A|-3-3--3-3-3-3--3-3--3-3-3-3-| 
E|-1-1--1-1-1-1--1-1--1-1-1-1-| 
		  

Full key step upFull key step up
Half key step upHalf key step up
Half key step downHalf key step down
Full key step downFull key step down
hide glossary

See also:

tabs Kraftklub - Ich Will Nicht Nach Berlin tabs Clueso - Du Bleibst tabs Kraftklub - Ritalinmedikinet tabs Alligatoah - Trauerfeier Lied tabs Alligatoah - Trauerfeier tabs J. Cole - No Role Modelz
e-chords

Other versions:

tabs Hüsker Dü - Whatever tabs Cro - Whatever tabs Oasis - Whatever tabs Satanic Surfers - Whatever tabs Hockey Dad - Whatever tabs John Lennon - Whatever Gets You Through The Night
auto scroll beats size up size down change color hide chords drawings
tab show chords e-chords YouTube Clip e-chords hide all tabs e-chords go to top tab

share