Creed

Alone

Creed

tabs Beginner beginner

by  LUNO

save to print version add songbook text version e-mail correct tuner
chordsukulelecavacokeyboardtabbassdrumsharmonicaflute Guitar Pro
close

there isn't a video lesson for this song

chords

Alone

	  		Band: Creed 
Song: Alone 
Intro 
E|----3---------------3-----3----------3----------------3--2--3- 
B|----0--0--1---------0--0--0----------0--0--1----------0--2--0- 
G|-0--0--2--0------0--0--2--0-------0--0--2--0-------0--0--4--0- 
D|-2--0--2--2------2--0--2--0-------2--0--2--2-------2--0--4--0- 
A|-2--2--0--3------2--2--0--2-------2--2--0--3-------2--2--2--2- 
E|-0--3------------0--3-----3-------0--3-------------0--3--2--3- 
 
Look at the bottom for the strumming and rhythm pattern 
//////////////////////////////////////////////////////////////// 
Chorus/Verse 
E|----3---------------3-----3- 
B|----0--0--1---------0--0--0- 
G|-0--0--2--0------0--0--2--0- 
D|-2--0--2--2------2--0--2--0- 
A|-2--2--0--3------2--2--0--2- 
E|-0--3------------0--3-----3- 
/////////////////////////////////////////////////////////////// 
/////////////////////////////////////////////////////////////// 
Or if you are lazy you can drop d and play it like this 
Intro 
E|------------------------------------------------------------- 
B|------------------------------------------------------------- 
G|------------------------------------------------------------- 
D|-2--5--7--10------2--5--7--5------2--5--7--10------2--5--4--5 
A|-2--5--7--10------2--5--7--5------2--5--7--10------2--5--4--5 
D|-2--5--7--10------2--5--7--5------2--5--7--10------2--5--4--5 
/////////////////////////////////////////////////////////////// 
Chorus/Verse 
E|---------------------------------- 
B|---------------------------------- 
G|---------------------------------- 
D|-2--5--7--10------2--5--7--5- 
A|-2--5--7--10------2--5--7--5- 
D|-2--5--7--10------2--5--7--5- 
/////////////////////////////////////////////////////////////// 
 
He just plays the intro once and then plays the Chorus and repeats it through the whole song 
to get an example of the strumming and somewhat of the rhythm I will give you the number of times  
each chord is played for the drop d version 
E|----------------------------------------------------------------------------------- 
B|----------------------------------------------------------------------------------- 
G|----------------------------------------------------------------------------------- 
D|-2-2-2-2---5--5-5-5---7---7-7-7---10---10----2-2-2-2---5--5-5-5---7---7-7-7---5---5 
A|-2-2-2-2---5--5-5-5---7---7-7-7---10---10----2-2-2-2---5--5-5-5---7---7-7-7---5---5 
D|-2-2-2-2---5--5-5-5---7---7-7-7---10---10----2-2-2-2---5--5-5-5---7---7-7-7---5---5 
///////////////////////////////////////////////////////////////////////////////////// 
		  

See also:

tabs Van Halen - Jump tabs The Doors - Roadhouse Blues tabs John Mayer - Belief tabs The Doors - People Are Strange tabs Guns N' Roses - Sweet Child o' mine tabs Aerosmith - Dream On
e-chords

Other versions:

tabs Blink 182 - Alone tabs Creed - Alone tabs Custard - Alone tabs Green Day - Alone tabs Pearl Jam - Alone tabs Tool - Alone
auto scroll beats size up size down change color hide chords drawings
tab show chords e-chords YouTube Clip e-chords hide all tabs e-chords go to top tab

share