Crazy Town

home > Crazy Town

Beautiful Tab

Crazy Town

Difficulty: nolevelnolevel

tuner correct add songbook print version text version save to e-mail
chordsukulelecavacokeyboardtabbassdrumsharmonicsflute Guitar Pro
chords

Beautiful

  		tuning: Drop-Db (Db, Ab, Db, Gb, Bb, Eb) 
delay pedal throughout the whole song 
 
intro/chorus 
|------------------------------------------------------------------------| 
|------------------------------------------------------------------------| 
|-------------------------------------------------11---------------------| 
|------14-------16-------12-------16------10-----------------------------| 
|-----------------------------------------------------------10---10/12-12| 
|14-14----14-14----12-12----12-12----10-10---10-10----10-10---10-10/12-12| 
 
 
verse 
|----------------------------------------------| 
|----------------------------------------------| 
|-9--12--12--10--9--12--12--14-----------------| 
|-7--10--12--10--7--10--12--14-----------------| 
|-7--10--10--8---7--10--10--12-----------------| 
|-7--10----------7--10-------------------------| 
 

	  

Search Paypal
auto scroll beats size up size down change color hide chords drawings
tab show chords e-chords YouTube Clip e-chords hide all tabs e-chords go to top tab