Crazy Frog

Hoover street

Crazy Frog

tabs Beginner beginner

by  MELETE

save to print version add songbook text version e-mail correct tuner
chordsukulelecavacokeyboardtabbassdrumsharmonicaflute Guitar Pro
close

there isn't a video lesson for this song

chords

Hoover street

	  		Artist:	Rancid 
Title:	Hoover Street 
 
 
 
 
Verse 1  (play twice) 
G:---7-55-7-5------------------------------------------------ 
D:------------77-5---7-55-7-5--------5-33-5-3---------------- 
A:-5--------------------------77-5------------55-3-----------           
E:-----------------5---------------3---------------7-77-5-55- 
 
Verse 2 (play once) 
G:--------------------------------------------------------------------------------- 
D:--------------------------------------------------------------------------------- 
A:-5---0-5-4-2---0-2-4-5---0-5-4-2---0-2-4-5---0-5-4-2---0-2-4-5---0-5-4-2---0-2-4- 
E:--------------------------------------------------------------------------------- 
 
Chorus (play twice) 
G:----------------------------------------------------------------- 
D:----------------------------------------------------------------- 
A:-5-5-5-5-5-5-5-5-2-2-2-0-0-0-2-2-5-5-5-5-5-5-5-5-2-2-2-0-0-0-2-2- 
E:----------------------------------------------------------------- 
 

		  

See also:

tabs Crazy Frog - Axel F tabs Big Time Rush - My Song For You tabs Crazy Frog - Popcorn tabs Mustard Plug - On And On tabs Crazy Frog - Hoover street tabs Mustard Plug - Mr.Smiley
e-chords

Other versions:

tabs Crazy Frog - Hoover street
auto scroll beats size up size down change color hide chords drawings
tab show chords e-chords YouTube Clip e-chords hide all tabs e-chords go to top tab

share