Craft Spells

Scandinavian Crush

Craft Spells

tabs

by  HEBEALMEIDA

save to print version add songbook text version e-mail correct tuner
chordsukulelecavacokeyboardtabbassdrumsharmonicaflute Guitar Pro
close

there isn't a video lesson for this song

chords

Scandinavian Crush

	  		

Chorus: 
  Lead 
e|------------------------|----------------------| 
B|------------------------|----------------------| 
G|---6-6-4-3--6--4--3-4-3-|-6-6-4-3--4-3-4-3-----| 
D|-4----------------------|------------------6-4-| 
A|------------------------|----------------------| 
E|------------------------|----------------------| x1 

e|----------------------|----------------------| 
B|----------------------|----------------------| 
G|-6-6-4-3--6--4--3-4-3-|-6-6-4-3--4-3-4-3-----| 
D|----------------------|------------------6-4-| 
A|----------------------|----------------------| 
E|----------------------|----------------------| x3 
  Rhythm (F# - B - Ebm7 - Bbm7) 
e|--------------7-7-7-7--6-6-6-6--13-13-13-13-| 
B|-11-11-11-11--7-7-7-7--7-7-7-7--14-14-14-14-| 
G|-11-11-11-11--8-8-8-8--6-6-6-6--13-13-13-13-| 
D|-11-11-11-11--9-9-9-9--8-8-8-8--15-15-15-15-| 
A|-9--9--9--9---9-9-9-9--6-6-6-6--13-13-13-13-| 
E|--------------7-7-7-7-----------------------| x4 

Verse: 
e|--------------7-7-7-7--6-6-6-6--13-13-13-13-| 
B|-11-11-11-11--7-7-7-7--7-7-7-7--14-14-14-14-| 
G|-11-11-11-11--8-8-8-8--6-6-6-6--13-13-13-13-| 
D|-11-11-11-11--9-9-9-9--8-8-8-8--15-15-15-15-| 
A|-9--9--9--9---9-9-9-9--6-6-6-6--13-13-13-13-| 
E|--------------7-7-7-7-----------------------| x4 

Repeat Chorus 

e|--------| 
B|--------| 
G|--------| 
D|-6--4---| 
A|--------| 
E|--------| 

Repeat VERSE 

  "If not tomorrow, when will it be? 
   When can I see you, please?" 

Repeat Chorus x2 

End. Please rate! :D 
		  

Full key step upFull key step up
Half key step upHalf key step up
Half key step downHalf key step down
Full key step downFull key step down
hide glossary

See also:

tabs Deep Purple - Strange kind of woman tabs Deep Purple - Smoke On The Water tabs Deep Purple - Time To Kill tabs Albert Hammond Jr - Gfc tabs Deep Purple - Soldier Of Fortune tabs Ira! - Nucleo De Base
e-chords

Other versions:

tabs Craft Spells - Scandinavian Crush
auto scroll beats size up size down change color hide chords drawings
tab show chords e-chords YouTube Clip e-chords hide all tabs e-chords go to top tab

share