CPM 22

Vidas que Se Encontram

CPM 22

tabs Advanced advanced

by  MAGO ABELHA

save to print version add songbook text version e-mail correct tuner
chordsukulelecavacokeyboardtabbassdrumsharmonicaflute Guitar Pro
close

there isn't a video lesson for this song

chords

Vidas que Se Encontram

Year: 2002 - Album: Chegou a Hora de Recomeçar

	  		Intro: E, C#, B, A 
e||-------------------------------------------------------------|| 
B||-------------------------------------------------------------|| 
G||-9-9-9-9-11-9-9-9-9-11-13-13-13-13-14-16-16-16-16-14-13-11-9-|| 
D||-------------------------------------------------------------|| 
A||-7-7-7-7-9--7-7-7-7-9--11-11-11-11-12-14-14-14-14-12-11-9--7-|| 
E||-------------------------------------------------------------|| 
 
Verso 1: E, C#, B, A 
Em um lugar qualquer	 
quando nada mais tinha valor 
te conheci 
naquela tarde que te encontrei 
o mundo parecia somente eu e você 
não podia ser melhor 
 
Prerefrao: B, E, A, F#, E, E(pm) 
e||----------------------------------------------------------------|| 
B||-4-------4-------0-------0-------2-------2----------------------|| 
G||---4---4---4---4---1---1---1---1---2---2---2---2----------------|| 
D||-----4-------4-------2-------2-------2-------2---4--4-2---2-2-2-|| 
A||-------------------------------------------------4--4-2---2-2-2-|| 
E||-------------------------------------------------2--2-0---0-0-0-|| 
 
vidas que se encontram 
seus olhos me dizem 
sem precisar falar 
 
Refrao: E, A, B, A 
Estar com você (Estar com você) 
nada é melhor (OUOUOUOU) 
Estar com você (eeeeeeee) 
me faz pensar em nós dois 
 
Riff intro 
 
Verso 2: E, C#, B, A 
Em um lugar qualquer 
Pelas ruas que levam ao mar 
Foi onde te vi 
Sei que nem sempre a vida é assim 
Mas enquanto você me fizer sorrir 
Eu vou estar bem aqui 
 
PréRefrão: B, E, A, F#, E, E(pm) 
 
Vidas que se encontram 
Sem alguma explicação 
Caminhos que levam pro mesmo lugar 
 
Refrao: E, A, B, A 
Estar com você (Estar com você) 
nada é melhor (OUOUOUOU) 
Estar com você (eeeeeeee) 
me faz pensar em nós dois 
 
solo: 
e||-----------------------------------|2|-----|| 
B||-5---5---4---4---5---5-------------|v|--5--|| 
G||---4---4---4---4---4---4-----------|e|-----|| 
D||-------------------------4-6-4-2-4-|z|-----|| 
A||-----------------------------------|e|-----|| 
E||-----------------------------------|s|-----|| 
 
 
ai aqui é o alexius moro nao tem algum cara mas gostoso como eu : ai gatas [email protected]!!! 

		  

Full key step upFull key step up
Half key step upHalf key step up
Half key step downHalf key step down
Full key step downFull key step down
hide glossary

See also:

tabs CPM 22 - Regina Let's Go tabs Tequila Baby - Histórias de amor tabs Tequila Baby - Planos perfeitos tabs Cueio Limão - Cair e Levantar tabs CPM 22 - Pensamentos Negativos tabs Tequila Baby - Coisas da Vida
e-chords

Other versions:

tabs CPM 22 - Vidas que Se Encontram
auto scroll beats size up size down change color hide chords drawings
tab show chords e-chords YouTube Clip e-chords hide all tabs e-chords go to top tab

share