CPM 22

Reflexões

CPM 22

tabs Beginner beginner

by  EDUARDO_LYVIO

save to print version add songbook text version e-mail correct tuner
chordsukulelecavacokeyboardtabbassdrumsharmonicaflute Guitar Pro
close

there isn't a video lesson for this song

chords

Reflexões

Year: 2005 - Album: Felicidade Instantânea

	  		 ---Acordes-- 
 
   C#   B   A    C 
E|--9---7---5----8-----| 
A|-11---9---7---10-----| 
D|-11---9---7---10-----|    
G|---------------------| 
B|---------------------| 
 
C#       B    C#      B       C#   
   quem pode mais, quem sabe mais 
B       C#            B   
   não estou contra você 
C#     B    C#    B       C# 
   não vou falar sobre ideais 
B      C#             B 
   não vou julgar ninguem 
 
B     A                      ( RIFF 1 ) 2x 
sua alma está perdendo a cor 
B      A                  ( RIFF 1 ) 2x 
seus olhos refletem a dor 
B     A 
sem amor 
 
(RIFF 1) os q estão com ->* tokar abafado   
 
    * * * * * * * *           
E|--7-7-7-7-7-7-7-7-7/8--5-7---| 
A|--9-9-9-9-9-9-9-9-9/10-7-9---| 
D|--9-9-9-9-9-9-9-9-9/10-7-9---|   2x 
G|-----------------------------| 
B|-----------------------------| 
E|-----------------------------| 
 
 
C#   B        C#     
   andar pra trás 
B      C# 
estaguinar 
B      C#           B 
   não ter pra onde ir 
C#  B   C# 
   observar 
B        C# 
falar demais 
B        C#          B 
   a inveja não tem fim 
 
B     A                     B C D|-> (RIFF 1) 
sua alma está perdendo a cor 
B     A                  B C D|-> (RIFF 1) 
seus olhos refletem a dor 
B     A              
sem amor no coração 
 
(RIFF 2) eh quando ele fala ''estupidez'' 
 
E|--x-x-x-x-7-x-x-x-x-7-x-x--| 
A|--x-x-x-x-9-x-x-x-x-9-x-x--| 
D|--x-x-x-x-9-x-x-x-x-9-x-x--| 
G|---------------------------| 
B|---------------------------| 
E|---------------------------| 
 
B       A                    B                  (Riff 2) 
fique o mais longe possível com a sua doença (estupidez) 
B            A             B     (Riff 2) 
o ódio é o fruto da ignorância (estupidez) 
B       A                    B                 (Riff 2) 
fique o mais longe possível com a sua doença (estupidez)(2x) 
 
 
E|--10-10-5-7~-10-10-5-7~-10-12-14---------------------------------- 
A|-------------------------------12-14------------------------------ 
D|-------------------------------------12~-12h14-12-14/15-14-12-9~-- 
G|------------------------------------------------------------------ 
B|------------------------------------------------------------------ 
E|------------------------------------------------------------------ 
 
E|------------------------------------------------------------------ 
A|------------------------------------------------------------------ 
D|-12h14-12-14/15-14-12-9~-12h14-12-14/15-14-12-9~-12h14-12-14/15-- 
G|------------------------------------------------------------------ 
B|------------------------------------------------------------------ 
E|------------------------------------------------------------------ 
 
 
E|------------------------------------------------------------------ 
A|------------------------------------------------------------------ 
D|-15-15-15-15-15-15-15-15-12h14-12-14/15-14-12-9~-12h14-12-14/15--- 
G|------------------------------------------------------------------ 
B|------------------------------------------------------------------ 
E|------------------------------------------------------------------ 
 
E|------------------------------------------------------------------ 
A|------------------------------------------------------------------ 
D|-14-12-9~-12h14-12-14/15-14-12-9~-12h14-12-14/15-15-15-15-15-15--- 
G|------------------------------------------------------------------ 
B|------------------------------------------------------------------ 
E|------------------------------------------------------------------ 
 
E|------------------------------------------------------------------| 
A|------------------------------------------------------------------| 
D|-15-15-15-15\14-15-15-15-15-15-15-15-15-15-12h14-9-12h14-9~-------| 
G|------------------------------------------------------------------| 
B|------------------------------------------------------------------| 
E|------------------------------------------------------------------| 
 
 
 
no finalzinho toca  
 
 
Com a sua doença ! 
 
E|-10-10-5-7~-| 
A|------------| 
D|------------| 
G|------------| 
B|------------| 
E|------------| 
 
 

		  

Full key step upFull key step up
Half key step upHalf key step up
Half key step downHalf key step down
Full key step downFull key step down
auto scroll beats size up size down change color hide chords drawings
tab show chords e-chords YouTube Clip e-chords hide all tabs e-chords go to top tab

share