CPM 22

Irreversível

CPM 22

tabs Easy easy

by  JOAOPRF

save to print version add songbook text version e-mail correct tuner
chordsukulelecavacokeyboardtabbassdrumsharmonicaflute Guitar Pro
close

there isn't a video lesson for this song

chords

Irreversível

Year: 2005 - Album: Felicidade Instantânea

	  		Aew galera,foi assim que eu tirei. 
 
Introducao 
 
e-------------------------------------------------------------------- 
B-------------------------------------------------------------------- 
G-------------------------------------------------------------------- 
D-8-8-8--------7-----------10--10-10-10-10-10-10--------------------- 
A-8-8-8--------7-----------10--10-10-10-10-10-10--------------------- 
E-6-6-6--------5-----------8---8--8--8--8--8--8--------------------3x 
 
e------------------------------------------------------- 
B------------------------------------------------------- 
G------------------------------------------------------- 
D-8-8-8-----7----3---3-3-3-3-3-3------------------------ 
A-8-8-8-----7----3---3-3-3-3-3-3------------------------ 
E-6-6-6-----5----1---1-1-1-1-1-1----------------------1x 
 
Parte 1 
e------------------------------------------------------- 
B------------------------------------------------------- 
G------------------------------------------------------- 
D-3--------7--------8-------10-------------------------- 
A-3--------7--------8-------10-------------------------- 
E-1-5x-----5-x-----6-5x-----8--5x---------------------2x 
 
Parte 2 
e----------------------------------------------------------- 
B----------------------------------------------------------- 
G----------------------------------------------------------- 
D-8-X-X-X-X-X----10-X-X-X-X-X---3-X-X-X-X-X-3-X-X-X-X-X----- 
A-8-X-X-X-X-X----10-X-X-X-X-X---3-X-X-X-X-X-3-X-X-X-X-X----- 
E-6-X-X-X-X-X----8--X-X-X-X-X---1-X-X-X-X-X-1-X-X-X-X-X---2x 
 
Obs- X=som abafado 
 
Parte 3 
e------------------------------------------------------- 
B------------------------------------------------------- 
G------------------------------------------------------- 
D-8------10-----5--------------------------------------- 
A-8------10-----5--------------------------------------- 
E-6-5x---8-5x---1-10x----------------------------------- 
 
e------------------------------------------------------- 
B------------------------------------------------------- 
G------------------------------------------------------- 
D-8-------10-------------------------------------------- 
A-8-------10-------------------------------------------- 
E-6-5x----8-5x------------------------------------------ 
 
Agora repete a parte 1 
 
Parte 4 
e------------------------------------------------------- 
B------------------------------------------------------- 
G------------------------------------------------------- 
D-10-----8-------3-------------------------------------- 
A-10-----8-------3-------------------------------------- 
E-8-5x---6-5x----1-9x---------------------------------2x 
 
Agora faz a intro de novo 
Dpois repete tudo a partir da parte 3 e o final eu naum sei Hehe =P 
Flw galera,fui!!!!!!!!!!!!!!!!!!! 
 

		  

auto scroll beats size up size down change color hide chords drawings
tab show chords e-chords YouTube Clip e-chords hide all tabs e-chords go to top tab

share