Courage My Love

Bridges

Courage My Love

tabs

by  DEIVCAVALCANTI

save to print version add songbook text version e-mail correct tuner
chordsukulelecavacokeyboardtabbassdrumsharmonicaflute Guitar Pro
close

there isn't a video lesson for this song

chords

Bridges

	  		
Intro 

Gtr.1 (Lead) 
e|---------------------|-----------------------------------------| 
B|---------------------|-----------------------------------------| 
G|--9-99-7---9999--7---|--5-55-4---5555-4------------------------| 
D|--x-xx-x---xxxx--x---|--x-xx-x---xxxx-x------------------------| 
A|--7-77-5---7777--5---|--3-33-2---3333-2------------------------| 
D|---------------------|-----------------------------------------| 
(continued) 
e|---------------------|-----------------------------------------| 
B|---------------------|-----------------------------------------| 
G|--9-99-7---9999--7---|--5-55-4-----9----------12---------------| 
D|--x-xx-x---xxxx--x---|--x-xx-x---------10-9-10-----------------| 
A|--7-77-5---7777--5---|--3-33-2---10----------------------------| 
D|---------------------|-----------------------------------------| 


Gtr.2 (Rhythm) 
e|---------------------|-----------------------------------------| 
B|---------------------|-----------------------------------------| 
G|---------------------|-----------------------------------------| 
D|--7777777777777777---|--3333333333333333-----------------------| 
A|--7777777777777777---|--3333333333333333-----------------------| 
D|--7777777777777777---|--3333333333333333-----------------------| 
(continued) 
e|---------------------|-----------------------------------------| 
B|---------------------|-----------------------------------------| 
G|---------------------|-----------------------------------------| 
D|--7777777777777777---|--33333333--55555555---------------------| 
A|--7777777777777777---|--33333333--55555555---------------------| 
D|--7777777777777777---|--33333333--55555555---------------------| 

Verse 1 

Gtr.1 (Lead) 
e|----------------------------------------|----------------------| 
B|----------------------------------------|-----8--888----8-8888-| 
G|----------5-----------------------------|-----9--999----9-9999-| 
D|--7-------5-------3-------0---5x-5x-5x--|--7--7--777--7-7-7777-| 
A|--7-------3-------3-------0---5x-5x-5x--|--7--7--777--7-7-7777-| 
D|--7-------3-------3-------0---5x-5x-5x--|--7--7--777--7-7-7777-| 
(continued) 
e|--3-3-333----3-3-3333--|----------------------------------| 
B|--5-5-555----5-5-5555--|----------------------------------| 
G|--5-5-555----5-5-5555--|----------------------------------| 
D|--5-5-555----5-5-5555--|--3--x-x-x-x-x-3-x-3-x-3-3-x-x-x--| 
A|--3-3-333----3-3-3333--|--3--x-x-x-x-x-3-x-3-x-3-3-x-x-x--| 
D|-----------------------|--3--x-x-x-x-x-3-x-3-x-3-3-x-x-x--| 
(continued) 
e|---------------------------------------------------------------| 
B|---------------------------------------------------------------| 
G|---------------------------------------------------------------| 
D|--0-x-x-x-x-x-5xx5xx5\-----------------------------------------| 
A|--0-x-x-x-x-x-5xx5xx5\-----------------------------------------| 
D|--0-x-x-x-x-x-5xx5xx5\-----------------------------------------| 

Pre-Chorus 1 
Gtr.1 (Lead) 
e|-------0---------------------|------------------8-7------| 
B|-------0---------------------|----------------------8----| 
G|-------0---------------------|--------55--------------9--| 
D|--0-0-0----7-7-x7---x77-x7\--|--3-3---33---5-5-----------| 
A|--0-0-0----7-7-x7---x77-x7\--|--3-3---33---5-5-----------| 
D|--0-0-0----7-7-x7---x77-x7\--|--3-3---33---5-5-----------| 
PM  * * * 

e|---------------------------------------------------------------| 
B|---------------------------------------------------------------| 
G|-----------------------------55--------------------------------| 
D|--7-7-x7---x77-x7\--|--3-3---33----5---------------------------| 
A|--7-7-x7---x77-x7\--|--3-3---33----5---------------------------| 
D|--7-7-x7---x77-x7\--|--3-3---33----5---------------------------| 

Chorus 

Gtr.1 (Lead) 
e|------------------------------------------| 
B|--------------------------------55555555--| 
G|--------------------------------55555555--| 
D|--3-33-333--5-55-555--7-77-777--55555555--| 
A|--3-33-333--5-55-555--7-77-777--33333333--| 
D|--3-33-333--5-55-555--7-77-777------------| x3 
(continued) 
e|--------------------------------------------| 
B|--------------------------------5-55--------| 
G|--------------------------------5-55--------| 
D|--3-33-333--5-55-555--7-77-777--5-55---0-3--| 
A|--3-33-333--5-55-555--7-77-777--3-33---0-3--| 
D|--3-33-333--5-55-555--7-77-777---------0-3--| 
PM                                       * 
(continued) 
e|---------------------------------------------------------------------| 
B|---------------------------------------------------------------------| 
G|---------------------------------------------------------------------| 
D|------<3>----------<3>-----<3>-------<2>--------<3>--------<2>--3-3--| 
A|--0-0--------0-00-----2-33-------3-33-------0-0-------0-00------3-3--| 
D|--0-0--------0-00-----2-33-------3-33-------0-0-------0-00------3-3--| 
PM  * *        * **     * **       * **       * *       * ** 
Pre-Verse 

Gtr.1 (Lead) 
e|---------------------|-----------------------------------------| 
B|---------------------|-----------------------------------------| 
G|--9-99-7---9999--7---|--5-55-4---5555-4------------------------| 
D|--x-xx-x---xxxx--x---|--x-xx-x---xxxx-x------------------------| 
A|--7-77-5---7777--5---|--3-33-2---3333-2------------------------| 
D|---------------------|-----------------------------------------| 
(continued) 
e|---------------------|-----------------------------------------| 
B|---------------------|-----------------------------------------| 
G|--9-99-7---9999--7---|--5-55-4-----9----------12---------------| 
D|--x-xx-x---xxxx--x---|--x-xx-x---------10-9-10-----------------| 
A|--7-77-5---7777--5---|--3-33-2---10----------------------------| 
D|---------------------|-----------------------------------------| 

Gtr.2 (Rhythm) 
e|---------------------|-----------------------------------------| 
B|---------------------|-----------------------------------------| 
G|---------------------|-----------------------------------------| 
D|--7777777777777777---|--33333333--55555555---------------------| 
A|--7777777777777777---|--33333333--55555555---------------------| 
D|--7777777777777777---|--33333333--55555555---------------------| 
(continued) 
e|---------------------|-----------------------------------------| 
B|---------------------|-----------------------------------------| 
G|---------------------|-----------------------------------------| 
D|--7777777777777777---|--33333333--55555555---------------------| 
A|--7777777777777777---|--33333333--55555555---------------------| 
D|--7777777777777777---|--33333333--55555555---------------------| 

Verse 2 

Gtr.1(Lead) 
e|---------------------------------------------------------------------------| 
B|---------------------------------------------------------------------------| 
G|--------------------5-xx-xxx-xxx-xxx---------------------------------------| 
D|--7-xx-xxx-xxx-xxx--5-xx-xxx-xxx-xxx--3-xx-xxx-xxx-xxx--0-xx-xxx-5x--5x55--| 
A|--7-xx-xxx-xxx-xxx--3-xx-xxx-xxx-xxx--3-xx-xxx-xxx-xxx--0-xx-xxx-5x--5x55--| 
D|--7-xx-xxx-xxx-xxx--------------------3-xx-xxx-xxx-xxx--0-xx-xxx-5x--5x55--| 
(continued) 
e|-----------------------| 
B|-----8--888----8-8888--| 
G|-----9--999----9-9999--| 
D|--7--7--777--7-7-7777--| 
A|--7--7--777--7-7-7777--| 
D|--7--7--777--7-7-7777--| 
(continued) 
e|--3-3-333----3-3-3333--|----------------------------------| 
B|--5-5-555----5-5-5555--|----------------------------------| 
G|--5-5-555----5-5-5555--|----------------------------------| 
D|--5-5-555----5-5-5555--|--3--x-x-x-x-x-3-x-3-x-3-3-x-x-x--| 
A|--3-3-333----3-3-3333--|--3--x-x-x-x-x-3-x-3-x-3-3-x-x-x--| 
D|-----------------------|--3--x-x-x-x-x-3-x-3-x-3-3-x-x-x--| 
(continued) 
e|------------------------| 
B|------------------------| 
G|------------------------| 
D|--0-x-x-x-x-x-5xx5xx5\--| 
A|--0-x-x-x-x-x-5xx5xx5\--| 
D|--0-x-x-x-x-x-5xx5xx5\--| 


Pre-Chorus 

Gtr.1 (Lead) 
e|-------0---------------------|------------------8-7------| 
B|-------0---------------------|----------------------8----| 
G|-------0---------------------|--------55--------------9--| 
D|--0-0-0----7-7-x7---x77-x7\--|--3-3---33---5-5-----------| 
A|--0-0-0----7-7-x7---x77-x7\--|--3-3---33---5-5-----------| 
D|--0-0-0----7-7-x7---x77-x7\--|--3-3---33---5-5-----------| 
PM  * * * 
(continued) 
e|-----------------------------------------| 
B|-----------------------------------------| 
G|-----------------------------55----------| 
D|--7-7-x7---x77-x7\--|--3-3---33----5-----| 
A|--7-7-x7---x77-x7\--|--3-3---33----5-----| 
D|--7-7-x7---x77-x7\--|--3-3---33----5-----| 
(continued) 
e|----------------------------------------8-7--------------------| 
B|--------------------------------------------8------------------| 
G|-----------------------------55---------------9----------------| 
D|--7-7-x7---x77-x7\--|--3-3---33----5-5-------------------------| 
A|--7-7-x7---x77-x7\--|--3-3---33----5-5-------------------------| 
D|--7-7-x7---x77-x7\--|--3-3---33----5-5-------------------------| 
(continued) 
e|---------------------------------------------------------------| 
B|---------------------------------------------------------------| 
G|---------------------------------------------------------------| 
D|--7-7-x7---3-3-x3---0~~~~~~~~5---------------------------------| 
A|--7-7-x7---3-3-x3---0~~~~~~~~5---------------------------------| 
D|--7-7-x7---3-3-x3---0~~~~~~~~5---------------------------------| 

Chorus 

Gtr.1 (Lead) 
e|------------------------------------------| 
B|--------------------------------55555555--| 
G|--------------------------------55555555--| 
D|--3-33-333--5-55-555--7-77-777--55555555--| 
A|--3-33-333--5-55-555--7-77-777--33333333--| 
D|--3-33-333--5-55-555--7-77-777------------| x3 
(continued) 
e|--------------------------------------------| 
B|--------------------------------5-55--------| 
G|--------------------------------5-55--------| 
D|--3-33-333--5-55-555--7-77-777--5-55---0-3--| 
A|--3-33-333--5-55-555--7-77-777--3-33---0-3--| 
D|--3-33-333--5-55-555--7-77-777---------0-3--| 
PM                                       *      
(continued) 
e|-----------------------------------------------------------------------------| 
B|-----------------------------------------------------------------------------| 
G|-----------------------------------------------------------------------------| 
D|------<3>----------<3>-----<3>-------<2>--------<3>--------<2>--3-3----------| 
A|--0-0--------0-00-----2-33-------3-33-------0-0-------0-00------3-3----------| 
D|--0-0--------0-00-----2-33-------3-33-------0-0-------0-00------3-3----------| 
PM  * *        * **     * **       * **       * *       * ** 

Guitar Solo 

Gtr.1 (Lead) 
Tapping 
e|--8p1h3-8p1h3-8p1h3---8p3h5-8p3h5-8p3h5---| 
B|------------------------------------------| 
G|------------------------------------------| 
D|------------------------------------------| 
A|------------------------------------------| 
D|------------------------------------------| 
(continued) 
e|--7p3h5-7p3h5---8p0h5-8p0h5-8p0h5-8p0h5---10p0h5-10p0h5---12p0h5-12p0h5-----------| 
B|----------------------------------------------------------------------------------| 
G|----------------------------------------------------------------------------------| 
D|----------------------------------------------------------------------------------| 
A|----------------------------------------------------------------------------------| 
D|----------------------------------------------------------------------------------| x2 
(continued) 
e|--15p0h8-15p0h8-13p0h8-13p0h8-12p0h8-12p0h8-10p0h8-10p0h8------| 
B|---------------------------------------------------------------| 
G|---------------------------------------------------------------| 
D|---------------------------------------------------------------| 
A|---------------------------------------------------------------| 
D|---------------------------------------------------------------| x3 
(Continued) 
e|--12~12~12~12~12~12/15~15~~~~~~~~~~~~~~~~~---------------------| 
B|---------------------------------------------------------------| 
G|---------------------------------------------------------------| 
D|---------------------------------------------------------------| 
A|---------------------------------------------------------------| 
D|---------------------------------------------------------------| 

Bridge 

Gtr.1 (Lead) 
(Clean) 
    C                     Cadd9 
e|---------------------------------------------------------------| 
B|----------1---0-------------------1---0--1---------------------| 
G|--------------------0---------0--------------------------------| 
D|------2-------------------0------------------------------------| 
A|--3------------------------------------------------------------| 
D|---------------------------------------------------------------| 
(continued) 
    D/C                   
e|---------------------------------------------------------------| 
B|----------1---0----------------1---0----3----------------------| 
G|------------------0--------------------------------------------| 
D|------2--------------------2-----------------------------------| 
A|--2--------------------2---------------------------------------| 
D|---------------------------------------------------------------| 
(continued) 
   C                     Cadd9 
e|---------------------------------------------------------------| 
B|----------1---0-------------------1---0--1---------------------| 
G|--------------------0---------0--------------------------------| 
D|------2-------------------0------------------------------------| 
A|--3--------------------------------------------------------0---| 
D|---------------------------------------------------------------| 
(continued) 
  Am                       F 
e|---------------------------------------------------------------| 
B|----------1---0----1-------------------------------------------| 
G|---------------------------------------------------------------| 
D|------2--------------------------------3-----------------------| 
A|--0----------------------------3--------------3----------------| 
D|---------------------------3-------3---------------------------| 


    C                     Cadd9 
e|---------------------------------------------------------------| 
B|----------1---0-------------------1---0--1---------------------| 
G|--------------------0---------0--------------------------------| 
D|------2-------------------0------------------------------------| 
A|--3------------------------------------------------------------| 
D|---------------------------------------------------------------| 
(continued) 
    D/C                   
e|---------------------------------------------------------------| 
B|----------1---0----------------1---0----3----------------------| 
G|------------------0--------------------------------------------| 
D|------2--------------------2-----------------------------------| 
A|--2--------------------2---------------------------------------| 
D|---------------------------------------------------------------| 
(continued) 
   C                     Cadd9 
e|---------------------------------------------------------------| 
B|----------1---0-------------------1---0--1---------------------| 
G|--------------------0---------0--------------------------------| 
D|------2-------------------0------------------------------------| 
A|--3--------------------------------------------------------0---| 
D|---------------------------------------------------------------| 
(continued) 
  Am                       F                           C 
e|---------------------------------------------------|------------| 
B|----------1---0----1-------------------------------|--1~~~~~~~--| 
G|---------------------------------------------------|--0~~~~~~~--| 
D|------2--------------------------------3-----------|--2~~~~~~~--| 
A|--0----------------------------3--------------3----|--3~~~~~~~--| 
D|---------------------------3-------3---------------|------------| 

Chorus 

Gtr.1 (Lead) 
e|------------------------------------------| 
B|--------------------------------55555555--| 
G|--------------------------------55555555--| 
D|--3-33-333--5-55-555--7-77-777--55555555--| 
A|--3-33-333--5-55-555--7-77-777--33333333--| 
D|--3-33-333--5-55-555--7-77-777------------| x3 
(continued) 
e|--------------------------------------------| 
B|--------------------------------5-55--------| 
G|--------------------------------5-55--------| 
D|--3-33-333--5-55-555--7-77-777--5-55---0-3--| 
A|--3-33-333--5-55-555--7-77-777--3-33---0-3--| 
D|--3-33-333--5-55-555--7-77-777---------0-3--| 
PM                                       *      
(continued) 
e|-----------------------------------------------------------------------------| 
B|-----------------------------------------------------------------------------| 
G|-----------------------------------------------------------------------------| 
D|------<3>----------<3>-----<3>-------<2>--------<3>--------<2>--3-3----------| 
A|--0-0--------0-00-----2-33-------3-33-------0-0-------0-00------3-3----------| 
D|--0-0--------0-00-----2-33-------3-33-------0-0-------0-00------3-3----------| 
PM  * *        * **     * **       * **       * *       * ** 

Outro 
Gtr.1 (Lead) 
e|---------------------|-----------------------------------------| 
B|---------------------|-----------------------------------------| 
G|--9-99-7---9999--7---|--5-55-4---5555-4------------------------| 
D|--x-xx-x---xxxx--x---|--x-xx-x---xxxx-x------------------------| 
A|--7-77-5---7777--5---|--3-33-2---3333-2------------------------| 
D|---------------------|-----------------------------------------| 
(continued) 
e|---------------------|-----------------------------------------| 
B|---------------------|-----------------------------------------| 
G|--9-99-7---9999--7---|--5-55-4---------------------------------| 
D|--x-xx-x---xxxx--x---|--x-xx-x---5-5-5-5-5-5-5-5---------------| 
A|--7-77-5---7777--5---|--3-33-2---5-5-5-5-5-5-5-5---------------| 
D|---------------------|-----------5-5-5-5-5-5-5-5---------------| 

Gtr.2 (Rhythm) 
e|---------------------|-----------------------------------------| 
B|---------------------|-----------------------------------------| 
G|---------------------|-----------------------------------------| 
D|--7777777777777777---|--3333333333333333-----------------------| 
A|--7777777777777777---|--3333333333333333-----------------------| 
D|--7777777777777777---|--3333333333333333-----------------------| 
(continued) 
e|---------------------|-----------------------------------------| 
B|---------------------|-----------------------------------------| 
G|---------------------|-----------------------------------------| 
D|--7777777777777777---|--33333333--55555555---------------------| 
A|--7777777777777777---|--33333333--55555555---------------------| 
D|--7777777777777777---|--33333333--55555555---------------------|  
		  

Full key step upFull key step up
Half key step upHalf key step up
Half key step downHalf key step down
Full key step downFull key step down
auto scroll beats size up size down change color hide chords drawings
tab show chords e-chords YouTube Clip e-chords hide all tabs e-chords go to top tab

share