Counting Crows

home > Counting Crows

Hanging Around Tab

Counting Crows

Difficulty: nolevelnolevel

tuner correct add songbook print version text version save to e-mail
chordsukulelecavacokeyboardtabbassdrumsharmonicsflute Guitar Pro
chords

Hanging Around

  		Heres the main riff as I figure it... 
 
e----------------------------------------------- 
B----------------------------------------------- 
G----------------------------------------------- 
D----------------2--0------------0----------- 
A------0--3--0---------3--2--3------0------- 
E---3------------------------------------------ 
 
e--------------------------------------------------------- 
B-------------------------------------------------------- 
G-------------------------------------------------------- 
D---------------2--0--0-----0---2--0------0--2--0----- 
A-----0--3--0------------3-------------3-----------3------ 
E--3---------------------------------------------------- 
 
Here is part of the solo in the middle of the song 
 
e----------------------------------------------- 
B----------------------------------------------- 
G----------------------------------------------- 
D----------------2--0------------0----------- 
A------0--3--0---------3--2--3------0------- 
E---3------------------------------------------ 
 
e--------------------------------------------------------- 
B-------------------------------------------------------- 
G-------------------------------------------------------- 
D---------------2--0--0---0---0--2--0----0--2------- 
A-----0--3--0-----------3---------------3---------- 
E--3---------------------------------------------------- 
this isnt all of it but it is most of it 
 

	  

Search Paypal
auto scroll beats size up size down change color hide chords drawings
tab show chords e-chords YouTube Clip e-chords hide all tabs e-chords go to top tab