Counting Crows

home > Counting Crows

Carriage Tab

Counting Crows

Difficulty: nolevelnolevel

tuner correct add songbook print version text version save to e-mail
chordsukulelecavacokeyboardtabbassdrumsharmonicsflute Guitar Pro
chords

Carriage

  		I cant believe no-one has tabbed this on mx 
 
 
 
Chords 
    C   Gm   Bb    F    Em  Am 
e|--0----0----0----1----0----3--| 
B|--1----3----3----1----0----3--| 
G|--0----3----0----2----0----3--| 
D|--2----0----3----3----2----0--| 
A|--3----0----1----3----2----0--| 
E|--0----3----0----1----0----0--| 
 
 
 
Verse part 1 : 
        C             Gm 	           Bb 	F  
e|-1------------|-------------|-------------|--------------| 
B|---------3-0--|-3-------3---|-6-----------|-1------------| 
G|-----0--------|-----3-----3-|---------7---|---------2----| 
D|---2---------2|---0---------|-----8-----8-|-----3-----3--| 
A|-3-----3------|-------------|---8---------|---3----------| 
E|--------------|-3-----3-----|-6-----6-----|-1-----1------| 
 
        C            Gm	           Bb	F 
e|-1------------|-----1--------|-------------|-----1---------| 
B|---------3-0--|-3-------3----|-6---6-------|-1-------1-----| 
G|-----0--------|---3----------|---------7---|---2-----------| 
D|---2---------2|--------------|---8---------|---------------| 
A|-3-----3------|--------------|-------------|---------------| 
E|--------------|-3-----3------|-6-----6-----|-1-----1-------| 
 
 
This little riff is played over halfway through the F pick on vers pt.1 
 
Guit.2 
 
e|---------------------| 
B|---------------------| 
G|---------------------| 
D|---------------------| 
A|----------3--5--3----| 
E|-0--1--3-------------| 
 
 
Chorus: 
     Em              Bb       Then play: C, F, Amin7 
e|-------------|------------| 
B|-------------|------------| 
G|----------0--|--------3---| 
D|------2------|------3-----| 
A|----2--------|----5-------| 
E|--0-----0----|--6---------| 
 
 
Done 
 

	  

Full key step upFull key step up
Half key step upHalf key step up
Half key step downHalf key step down
Full key step downFull key step down
Search Paypal
auto scroll beats size up size down change color hide chords drawings
tab show chords e-chords YouTube Clip e-chords hide all tabs e-chords go to top tab