Counting Crows

home > Counting Crows

Accidentally In Love Tab

Counting Crows

Difficulty: ExpertExpert

by europeu

tuner correct add songbook print version text version save to e-mail
chordsukulelecavacokeyboardtabbassdrumsharmonicsflute Guitar Pro
chords

Accidentally In Love

  		Tuning:Standard 
 
INTRO 
e|-3---5---3---7---5---3--  3---5---3---7---7---5---3---3----|   X2 
B|-3---3---3---5---3---3--  3---3---3---5---5---3---3---3----| 
G|-----------------------------------------------------------| 
 
End Intro with 
e|--3------------------------------------------------------------------------| 
B|--1------------------------------------------------------------------------| 
G|---------------------------------------------------------------------------| 
 
Verse 
e|-------------------------------------------------------------------------| 
B|-------------------------------------------------------------------------| 
G|----------------5----------7---------5---------5----------------5--------| 
D|----------5-----5-X5-5-----7X5-5-----5-X5-5----5-X5-9----7------5-X5-5---| 
A|----------5-X5--3----5-X5--5---5-X5--3----5-X5-3----9-X5-7-X5---3----5---|X1 
E|--0-0-1-3-3----------3---------3----------3---------7----5-----------3---| 
                                So she said what's the problem baby... 
Chorus X3 
e|------------------------------------------------------------------------| 
B|------------------------------------------------------------------------| 
G|------------5----7------------------------------------------------------| 
D|-5-----7----5-X4-7-X4---------------------------------------------------| 
A|-5-X1--7-X1-3----5------------------------------------------------------| 
E|-3-----5----------------------------------------------------------------| 
   Come, Come... 
 
Post-Chorus 
e|----------------------------------------------------------------------| 
B|----------------------------------------------------------------------| 
G|------2----5---------------5------------------------------------------| 
D|-5----2-X4-5-X4------------5-X1---------------------------------------| 
A|-5-X4-0----3---------------3------------------------------------------| 
E|-3--------------------------------------------------------------------| 
 

	  

Search Paypal
auto scroll beats size up size down change color hide chords drawings
tab show chords e-chords YouTube Clip e-chords hide all tabs e-chords go to top tab