Cosmo Jarvis

Wild Humans

Cosmo Jarvis

tabs

by  BRUNBLAZKOWSKI

save to print version add songbook text version e-mail correct tuner
chordsukulelecavacokeyboardtabbassdrumsharmonicaflute Guitar Pro
close

there isn't a video lesson for this song

chords

Wild Humans

	  		 
Tuning: E A D G B E 

Guitar I   - Clean, Electric 
Guitar II  - Distorted, Electric 
Guitar III - Clean, Acoustic 


Intro/Main Riff 
Guitar I                                                        x4 | 
------------------------------------------------------------------| 
------------------------------------------------------------------| 
-----------4~-----------------------------------------------------| 
--7~-7~4~7~--7~-------4~5~4~-------4~5~4~-------4~5~4~~-----------| 
---------------5~-5~5~------5~-5~5~------5~-5~5~------------------| 
------------------------------------------------------------------| 
Guitar II                                                       x4 | 
-------------7~---------------------------------------------------| 
-10~-10~7~10~--10~-------7~8~7~-------7~8~7~-------7~8~7~~--------| 
------------------7~-7~7~------7~-7~7~------7~-7~7~---------------| 
------------------------------------------------------------------| 
------------------------------------------------------------------| 
------------------------------------------------------------------| 
Guitar III (Palm mute on first play through)                    x2 | 
-----------------5-------3------|---------------------------------| 
-7-------3-------5-------3------|-7-------5-------5-------3-------| 
-7-------4-------6-------4------|-7-------6-------5-------4-------| 
-7-(x8)--4-(x8)--7-(x8)--5-(x8)-|-7-(x8)--6-(x8)--5-(x8)--4-(x8)--| 
-5-------2-------7-------5------|-5-------4-------3-------2-------| 
-----------------5-------3------|---------------------------------| 



Verse I 
Guitar III                                                      x4 | 
-----------------5-------3------|---------------------------------| 
-7-------3-------5-------3------|-7-------5-------5-------3-------| 
-7-------4-------6-------4------|-7-------6-------5-------4-------| 
-7-(x8)--4-(x8)--7-(x8)--5-(x8)-|-7-(x8)--6-(x8)--5-(x8)--4-(x8)--| 
-5-------2-------7-------5------|-5-------4-------3-------2-------| 
-----------------5-------3------|---------------------------------| 
Guitar II (only on last repeat)                                 x4 | 
------------------------------------------------------------------| 
------------------------------------------------------------------| 
-----7-----7----------7-----7---7---------------------------------| 
-x-x-x-x-x-x-x-x--x-x-x-x-x-x-x-x---------------------------------| 
-5-5-5-5-5-5-5-5--5-5-5-5-5-5-5-5---etc.--------------------------| 
------------------------------------------------------------------| 
 * *   * *  * *   * *   * *   * 


Pre-Chorus 
Guitar III 
-----------------------0-0-0-0-0----------------------------------| 
-------------------0-0-0-0-0-0-0----------------------------------| 
-------------0-0-0-0-0-0-0-0-0-0----------------------------------| 
-----2-2-2-2-2-2-2-2-2-2-2-2-2-2----------------------------------| 
-2-2-2-2-2-2-2-2-2-2-2-2-2-2-2-2----------------------------------| 
-0-0-0-0-0-0-0-0-0-0-0-0-0-0-0-0----------------------------------| 
 * * * *  


Chorus I 
Guitar II                                                       x2 | 
------------------------------------------------------------------| 
---------------------------------x-x-8-x-x-8-x-8-7brbr------------| 
-x-x-7-x-x-7-x-7-x-x-4-x-x-4-x-4-----------------------7~~--------| 
------------------------------------------------------------------| 
------------------------------------------------------------------| 
------------------------------------------------------------------| 
Guitar III 
---------5-------3-------------|---------5-------3----------------| 
-7-------5-------3-------7-----|-7-------5-------3-------7~-------| 
-7-------6-------4-------7-----|-7-------6-------4-------7~-------| 
-7-(x8)--7-(x8)--5-(x8)--7-(x8)|-7-(x8)--7-(x8)--5-(x8)--7~-------| 
-5-------7-------5-------5-----|-5-------7-------5-------5~-------| 
---------5-------3-------------|---------5-------3----------------| 


Verse 

Pre-Chorus (Guitar II also plays it) 

Play Chorus 3 Times, with the break in the middle 


Bridge 
Guitar I                                                       x1.5| 
------------------------------------------------------------------| 
------------------------------------------------------------------| 
-6-6-7-6-6-7-6-7-6-6-7-6-6-7-6-7-2-2-4-2-2-4-2-4-2-2-4-2-2-4-2-4--| 
------------------------------------------------------------------| 
------------------------------------------------------------------| 
------------------------------------------------------------------| 
Guitar II                                                      x3.5| 
------------------------------------------------------------------| 
----------10-10-7-7---------10-10-7-7-----------------------------| 
--9-9-7-7-----------9-9-7-7---------------------------------------| 
------------------------------------------------------------------| 
------------------------------------------------------------------| 
------------------------------------------------------------------| 
THEN! 
Guitar I 2:45 
------------------------------------------------------------------| 
-----3------3------3------3b-----3b-------------------------------| 
---2------2------2------2b-----2b---------------------------------| 
-0------0------0------0------0------------------------------------| 
------------------------------------------------------------------| 
------------------------------------------------------------------| 


Main Riff/Chorus 
Guitar I                                                        x4 | 
------------------------------------------------------------------| 
------------------------------------------------------------------| 
-----------4~-----------------------------------------------------| 
--7~-7~4~7~--7~-------4~5~4~-------4~5~4~-------4~5~4~~-----------| 
---------------5~-5~5~------5~-5~5~------5~-5~5~------------------| 
------------------------------------------------------------------| 
Guitar II                                                       x4 | 
-------------7~---------------------------------------------------| 
-10~-10~7~10~--10~-------7~8~7~-------7~8~7~-------7~8~7~~--------| 
------------------7~-7~7~------7~-7~7~------7~-7~7~---------------| 
------------------------------------------------------------------| 
------------------------------------------------------------------| 
------------------------------------------------------------------| 
Guitar III Staccato                                             x1 | 
-------------5--5--3--5--5--|-------------------------------------| 
-7--7--3--3--5--5--3--5--5--|-7--7--5--5--5--5--3--3--------------| 
-7--7--4--4--6--6--4--6--6--|-7--7--6--6--5--5--4--4--------------| 
-7--7--4--4--7--7--5--7--7--|-7--7--6--6--5--5--4--4--------------| 
-5--5--2--2--7--7--5--7--7--|-5--5--4--4--3--3--2--2--------------| 
-------------5--5--3--5--5--|-------------------------------------| 
|| Then change rhythm 
Guitar III 
---------5-------3-------------|---------5-------3----------------| 
-7-------5-------3-------7-----|-7-------5-------3-------7~-------| 
-7-------6-------4-------7-----|-7-------6-------4-------7~-------| 
-7-(x8)--7-(x8)--5-(x8)--7-(x8)|-7-(x8)--7-(x8)--5-(x8)--7~-------| 
-5-------7-------5-------5-----|-5-------7-------5-------5~-------| 
---------5-------3-------------|---------5-------3----------------| 
Here; Guitar II's D Octaves are dubbed in the background. 


3:12 
Guitar I & Guitar III 
------------5-5--------3-3----------------------------------------| 
-7-7--------5-5--------3-3----------------------------------------| 
-7-7--------6-6--------4-4----------------------------------------| 
-7-7--------7-7--------5-5----------------------------------------| 
-5-5--------7-7--------5-5----------------------------------------| 
------------5-5--------3-3----------------------------------------| 
Guitar II 
------------------------------------------------------------------| 
------7~~---------5~~--------3~~----------------------------------| 
------9b~---------7b~--------5b~----------------------------------| 
------------------------------------------------------------------| 
------------------------------------------------------------------| 
------------------------------------------------------------------|  
		  

Full key step upFull key step up
Half key step upHalf key step up
Half key step downHalf key step down
Full key step downFull key step down
hide glossary

See also:

tabs Blur - Coffee And TV tabs Ben Howard - Oats In The Water tabs Oasis - Stop crying your heart out tabs Jethro Tull - Mother Goose tabs Stone Temple Pilots - Interstate love song tabs Jethro Tull - Locomotive Breath Beginning
e-chords

Other versions:

tabs Cosmo Jarvis - Wild Humans
auto scroll beats size up size down change color hide chords drawings
tab show chords e-chords YouTube Clip e-chords hide all tabs e-chords go to top tab

share