Cosmo Jarvis

My Day

Cosmo Jarvis

tabs

by  DEIVCAVALCANTI

save to print version add songbook text version e-mail correct tuner
chordsukulelecavacokeyboardtabbassdrumsharmonicaflute Guitar Pro
close

there isn't a video lesson for this song

chords

My Day

	  		
"My Day" x4 

verse 1  0:09 - 0:51                          x4| 
-----------------1-1~-1-1~----1-1~-1-1~---------|---------------------------------| 
----1-1~-1-1~----3-3~-3-3~----3-3~-3-3~---------|-----------------1~~-------------| 
----2-2~-2-2~----2-2~-2-2~----2-2~-2-2~---------|-4~~-2-0-2~~-2-4-----2-0-2~~-----| 
----2-2~-2-2~-0~~~~--------0~~~~--------3-2-0---|--------(0)~---------------------| 
-0~~~~----------------------------------------3-|----------------(0)~-------------| 
------------------------------------------------|(3)~--------------------(1)~-----| 
Repeat that twice, then  
Pre-Chorus  0:51 - 0:55 
-----|---0-0~-0-0~---0-0~-0-0~------0-0~-0-0~-0-----------------| 
-----|---0-0~-0-0~---0-0~-0-0~------0-0~-0-0~-0-----------------| 
-2-2-|(1)1-1~-1-1~---1-1~-1-1~------1-1~-1-1~-1-----------------| 
-----|---0-0~-0-0~---0-0~-0-0~------0-0~-0-0~-0-----------------| 
-----|---2-2~-2-2~---2-2~-2-2~------2-2~-2-2~-2-----------------| 
-----|-0~~---------0~~------------0~~---------0-----------------| 


Chorus 1 0:55 - 1:15   x8|  
-----0~-0-0-0~-0-0-0~-0~-|------------------0000000000000000----| 
-0~0-1~-1-1-1~-1-1-1~-1~-|-5555555555555555-0000000000000000----| 
-1~1-2~-2-2-2~-2-2-2~-2~-|-5555555555555555-1111111111111111----| 
-2~2-2~-2-2-2~-2-2-2~-2~-|-5555555555555555-0000000000000000----| 
-2~2-0~-0-0-0~-0-0-0~-0~-|-3333333333333333-2222222222222222----| 
-0~0---------------------|------------------0000000000000000----| 

Post Chorus Shred 1:16 - 1:32                                 x4| 
----------------------------------------------------------------| 
-5-5/6~~-3-3/5~~-1-1/3~~--3\0/1~--------------------------------| 
-5-5/7~~-4-4/5~~-2-2/4~~--4\1/2~--------------------------------| 
----------------------------------------------------------------| 
----------------------------------------------------------------| 
----------------------------------------------------------------| 


verse 2  1:32 - 2:15     
Guitar 1 Natural Harmonics                                    x2| 
----------------12+~--------------------------12+~--------------|---------------------------------| 
----------------------------------------------------------------|-----------------1~~-------------| 
----------------------------------------------------------------|-4~~-2-0-2~~-2-4-----2-0-2~~-----| 
-----7+~-------------7+~-----------7+~-------------7+~----------|---------------------------------| 
--7+~---------------------------7+~-----------------------------|---------------------------------| 
----------------------------------------------------------------|---------------------------------| 
Guitar 2 Staccatos (off beats)                                x2| 
-5---3---1---5---5---3---1---5----------------------------------|---33~33~--11~11~----------11~11~| 
-5---3---1---5---5---3---1---5----------------------------------|---33~33~--33~33~--11~11~--11~11~| 
-5---4---2---5---5---4---2---5----------------------------------|---44~44~--22~22~--22~22~--22~22~| 
----------------------------------------------------------------|---55~55~0~~-------22~22~--33~33~| 
----------------------------------------------------------------|---55~55~--------0~~-------33~33~| 
----------------------------------------------------------------|-3~~---------------------1~~-----| 
Repeat all this Verse twice aswell (with the 2nd repeat being a bit different in both guitars parts) 


Pre-Chorus again 2:15 - 2:20 

Chorus again     2:20 - 2:40 

Post Chorus  2:40 - 3:00       x2|                                                                      x2| 
---------------------------------|12-12/13-13-13-13~~-10-10/12-12-12-12~~-8-8-/10-10-10-10~--10\7/8-~~\\--| 
-5-5/6~~-3-3/5~~-1-1/3~~--3\0/1~/|13-13/15-15-15-15~~-12-12/13-13-13-13~~-1010/12-12-12-12~--12\8/10~~\\--| 
-5-5/7~~-4-4/5~~-2-2/4~~--4\1/2~/|------------------------------------------------------------------------| 
---------------------------------|------------------------------------------------------------------------| 
---------------------------------|------------------------------------------------------------------------| 
---------------------------------|------------------------------------------------------------------------| 


verse 3  3:00 - 3:15     
Guitar 1 Natural Harmonics (tremolo effect)                   x2| 
----------------12+~--------------------------12+~--------------|---------------------------------| 
----------------------------------------------------------------|-----------------1~~-------------| 
----------------------------------------------------------------|-4~~-2-0-2~~-2-4-----2-0-2~~-----| 
-----7+~-------------7+~-----------7+~-------------7+~----------|---------------------------------| 
--7+~---------------------------7+~-----------------------------|---------------------------------| 
----------------------------------------------------------------|---------------------------------| 
then 
Guitar 2 Staccatos 3:20 - 3:35                                x4| 
-x5-5--x5-5--x5-5--x5-5--x5-5--x5-5--x5-5-----------------------| 
-x5-5--x5-5--x3-3--x6-6--x6-6--x6-6--x6-6-----------------------| 
-x5-5--x5-5--x5-5--x5-5--x5-5--x5-5--x5-5---...-----------------| 
----------------------------------------------------------------| 
----------------------------------------------------------------| 
----------------------------------------------------------------| 


Pre-Chorus interlude thing 3:35 - 3:53 
Guitar 1                    x2|                               x2| 
------------------------------|---------------------------------| 
-----------------1~~----------|-----------------1~~-------------| 
-4~~-2-0-2~~-2-4-----2-0-2~~--|-4~~-2-0-2~~-2-4-----2-0-2~~-----| 
------------------------------|---------------------------------| 
------------------------------|---------------------------------| 
------------------------------|---------------------------------| 
Guitar 2                    x2|Triplets                       x2| 
--333-----111-----000-----111-|-333333--111111--000000--111111--| 
--333-----333-----111-----111-|-333333--333333--111111--111111--| 
--444-----222-----222-----222-|-444444--222222--222222--222222--| 
--555-----000-----222-----333-|-555555--000000--222222--333333--| 
--555-------------000-----333-|-555555----------000000--333333--| 
--333---------------------111-|-333333------------------111111--| 


Pre-Chorus Lead Break 3:54 - 4:06 
Guitar 1 
-5h7~~--5-------------------------------------------------------| 
----------8-6~~~-5----------------------------------------------| 
-------------------7-5\2~~~---5\2~-2~~~---1~~~~~~~~-------------| 
----------------------------------------------------------------| 
----------------------------------------------------------------| 
----------------------------------------------------------------| 
Guitar 2                                                                                            
---33~33~--11~11~--11~11~--11~11~--11~11~------------55~555~--55~555~---1010~101010~10~1010~101010~10~10...-10| 
---33~33~--33~33~--11~11~--11~11~--11~11~------------55~555~--55~555~---9-9~~9-9-9~~9~~9-9~~9-9-9~~9~~9-...~9-| 
---44~44~--22~22~--22~22~--22~22~--22~22~--2---4-----55~555~--55~555~---9-9~~9-9-9~~9~~9-9~~9-9-9~~9~~9-...~9-| 
---55~55~0~~-------33~33~--33~33~--33~33~--3---5-----77~777~--77~777~---9-9~~9-9-9~~9~~9-9~~9-9-9~~9~~9-...-9-| 
---55~55~----------33~33~--33~33~--33~33~xx3-xx5-xx--77~777~--77~777~-7~~-----------7~~------------7~~------7-| 
-3~~-------------1~~-----1~~-----1~~-----xx1-xx3-xx5~~------5~~-----------------------------------------------| 


Play Chorus again - 4:06 - 4:28 


Post Chorus-shred 4:28 - 4:44 
-12-12/13~13~--10-10/12~12~--8--8-/10~10~--10\7/8~~\----15-15/17~17~--13-13/15~15~--12-12/13~13~--13\10/12~~\-| 
-13-13/15~15~--12-12/13~13~--10-10/12~12~--12\8/10~\----17-17/18~18~--15-15/17~17~--13-13/15~15~--15\12/13~~\-| 
--------------------------------------------------------------------------------------------------------------| 
--------------------------------------------------------------------------------------------------------------| 
--------------------------------------------------------------------------------------------------------------| 
--------------------------------------------------------------------------------------------------------------| 
then 
-12-12/13~13~--10-10/12~12~--8--8-/10~10~--10\7/8~~\----------------------------------------------------------| 
-13-13/15~15~--12-12/13~13~--10-10/12~12~--12\8/10~\----5-5/6~6~--3-3/5~5~--1-1/3~3~--3\0/1~~~~~~~~~~~~~~-----| 
--------------------------------------------------------5-5/7~7~--4-4/5~5~--2-2/4~4~--4\1/2~~~~~~~~~~~~-------| 
--------------------------------------------------------------------------------------------RING ON-----------| 
--------------------------------------------------------------------------------------------------------------| 
--------------------------------------------------------------------------------------------------------------| 




Fuck me, The bridge/Solo 4:44                             x2| 5:03                      x4| 
------------------------------------------------------------|-0-0~-00~00~-0-0~-00~00~-----| 
------------------------------------------------------------|-1-1~-11~11~-1-1~-11~11~-----| 
------------------------------------------------------------|-0h2~-22~00~-0h2~-22~00~-----| 
------------------------------------------------------------|-2-2~-22~22~-2-2~-22~22~-----| 
------------------------------------------------------------|-0-0~-00~00~-0-0~-00~00~-----| 
-00/5~-/8-0/5~--00/5~-/8-0/5~--00-1~-/8-0-1~--00-1~-/8-0-1~-|-----------------------------| 
Fast Muting comes in on second repeat 
break into Am chord at the end of second repeat. 


5:12                                                                         x2| 
-----17--17--17--19--19--20--20--------17------17------17------17--------------| 
---17--17--17--17--17--17--17--17----20--20--20--20--20--20--20--20------------| 
-17--------------------------------17------17------17------17------------------| 
-------------------------------------------------------------------------------| 
-------------------------------------------------------------------------------| 
-------------------------------------------------------------------------------| 

5:28 
-----------------------0~-0--0--0------------0000000000000000000000000--0~~~---| 
-15-----15-------------15~15-15-15--------1111111111111311131111113111--1~~~---| 
----17-----17---etc..--17~17-17-17---etc.---22222222222222222222222222000~~~---| 
-----19-----19---------19~19-19-19-----------2222222222222222222222222--2~~~---| 
----------------------------------------------000000000000000000000000--0~~~---| 
-------------------------------------------------------------------------------| 

5:49 Lead brake 
----------------------------------------------------------------------------------------------------------8~-| 
-------------------------------------------------------------------8-8---------------------------------------| 
--------------------------------------------5-5/7-7v(9)vvvv~~~~--------7-7p5~~---5---------------------------| 
-------------------------------5---55~~~-5h7-7---------------------------------7---7-5-7~--7-5---5-7-7~~-----| 
-5p3-5p3---------------3h5/7-7---7-------------------------------------------------------------7-------------| 
---------5p3~~/5~~--3h5--------------------------------------------------------------------------------------| 



6:02 tapping                                         x2|                                                x2| 
-t12p8--------t12p8--------t12p8-------t12p8-----------|-t12p5-------t12p5-------t12p5-------t12p5--------| 
-------t12p5--------t12p5--------t12p5-------t12p5-----|-------t12p8-------t12p8-------t12p8-------t12p8--| 
-------------------------------------------------------|--------------------------------------------------| 
-------------------------------------------------------|--------------------------------------------------| 
-------------------------------------------------------|--------------------------------------------------| 
-------------------------------------------------------|--------------------------------------------------| 

6:11                                                 x2|                                                x2| 
-t12~~p5--------------------t12~~p5--------------------|-t12p8-----------------t12p8----------------------| 
--------t12~~p5-------t12~~--------t12~~p5-------t12~~-|------t12p5-----t12p5-------t12p5-----t12p5-------| 
---------------t12~~p5--------------------t12~~p5------|-----------t12p5-----------------t12p5------------| 
-------------------------------------------------------|--------------------------------------------------| 
-------------------------------------------------------|--------------------------------------------------| 
-------------------------------------------------------|--------------------------------------------------| 

6:24                                                 x2| 6:29 
-t12p5-----------------t12p5---------------------------|-t12p8-----------------t12p8----------------------| 
------t12p8-----t12p8-------t12p8-----t12p8------------|------t12p5-----t12p5-------t12p5-----t12p5-------| 
-----------t12p5-----------------t12p5-----------------|-----------t12p5-----------------t12p5------------| 
-------------------------------------------------------|--------------------------------------------------| 
-------------------------------------------------------|--------------------------------------------------| 
-------------------------------------------------------|--------------------------------------------------| 

6:31                                                   | 6:33              
-t12p8-t12p8------------t12p8-t12p8--------------------|-t12p5-t12p5------------t12p5-t12p5---------------| 
------------t12p5------------------t12p5---------------|------------t12p8------------------t12p8----------| 
-----------------t12p5------------------t12p5----------|-----------------t12p5------------------t12p5-----| 
-------------------------------------------------------|--------------------------------------------------| 
-------------------------------------------------------|--------------------------------------------------| 
-------------------------------------------------------|--------------------------------------------------| 

6:37 thank fuck. 
-t12p5------------t12p5--------------------------------| 1 2 3 4  
------t12p8------------t12p8---------------------------| 
-----------t12p5------------t12p5-t12p0t12\\\----2-----| 
----------------------------------------------2~-2-----| 
----------------------------------------------2~-0-----| 
----------------------------------------------0~-------| 



6:40 "My Day"                                                                        x2| 
---------------------------------------------------------------------------------------| 
--Heavy as fuck------------------------------------------------------------------------| 
---------------------------------------------------------------------------------------| 
---------------------------------------------------------------------------------------| 
---------------------------------------------------------------------------------------| 
-00/5~555-/8-0/5~55~--00/5~555-/8-0/5~55~--00-1~111~-/8-0-1~11~--00-1~111~-/8-0-1~11~--| 

6:56                                                                                 x2| 
---------------------------------------------------------------------------------------| 
--Heavy as fuck-still------------------------------------------------------------------| 
---------------------------------------------------------------------------------------| 
---------------------------------------------------------------------------------------| 
-----------------------------------Triplet--------------------------------------Triplet| 
-00/5~555-/8-0/5~55~--00/5~555-/8-0/5-4-3--00-1~111~-/8-0-1~11~--00-1~111~-/8-0-0-3-4--| 



7:13 (at this point another guitar keeps playing this but in powerchords)             
Gtr2                                                                                 x6| 
---------------------------------------------------------------------------------------| 
---------------------------------------------------------------------------------------| 
---------------------------------------------------------------------------------------| 
---------------------------------------------------------------------------------------| 
---------------------------------------------------------------------------------------| 
-00/5~555-/8-0/5~55~--00/5~555-/8-0/5~55~--00-1~111~-/8-0-1~11~--00-1~111~-/8-0-1~11~--| 
7:13  
Gtr1                                          x2| 
------------------------------------------------|-------------------------------------------------| 
-12-12-12-12-12-etc...----9-9-9-9-9-9-9-9 etc..-|-12~~~~~-----------------------------------------| 
------------------------------------------------|-14b(16)~----------------------------------------| 
------------------------------------------------|-Just keep doing these bends and sliding up------| 
------------------------------------------------|-the strings until you come back into the main---| 
------------------------------------------------|-riff again, which you play another 2 times.-----| 

End on 8:07 
---(3)(3)~-----| 
----1--1~------| 
-xx-2--2~------| 
-xx-2--2~------| 
-xx-0--0~------| 
-xx------------| 
		  

See also:

tabs Blur - Coffee And TV tabs Ben Howard - Oats In The Water tabs Oasis - Stop crying your heart out tabs Jethro Tull - Mother Goose tabs Stone Temple Pilots - Interstate love song tabs Jethro Tull - Locomotive Breath Beginning
e-chords

Other versions:

tabs Cosmo Jarvis - My Day
auto scroll beats size up size down change color hide chords drawings
tab show chords e-chords YouTube Clip e-chords hide all tabs e-chords go to top tab

share