Corinne Bailey Rae

Like A Star

Corinne Bailey Rae

tabs Beginner beginner

by  EUROPEU

save to print version add songbook text version e-mail correct tuner
chordsukulelecavacokeyboardtabbassdrumsharmonicaflute Guitar Pro
close

there isn't a video lesson for this song

chords

Like A Star

	  		Dm9 
e|---------12---|---------12---|---------12---|---------12---| 
B|-------10-----|-------10-----|-------10-----|-------10-----| 
G|-----10-------|-----10-------|-----10-------|-----10-------| 
D|---10---------|---10---------|---10---------|---10---------| 
A|--------------|--------------|--------------|--------------| 
E|--------------|--------------|--------------|--------------| 

   E7 
e|---------10---|---------10---|---------10---|---------10---| 
B|-------9------|-------9------|-------9------|-------9------| 
G|-----9--------|-----9--------|-----9--------|-----9--------| 
D|---9----------|---9----------|---9----------|---9----------| 
A|--------------|--------------|--------------|--------------| 
E|--------------|--------------|--------------|--------------| 

   Am7 
e|-----8--------|-----8--------|-----8--------|-----8--------| 
B|-------8------|-------8------|-------8------|-------8------| 
G|---------9----|---------9----|---------9----|---------9----| 
D|---7----------|---7----------|---7----------|---7----------| 
A|--------------|--------------|--------------|--------------| 
E|--------------|--------------|--------------|--------------| 

   G7sus4 
e|---------8----|---------8----|---------8----|---------8----| 
B|-------6------|-------6------|-------6------|-------6------| 
G|-----7--------|-----7--------|-----7--------|-----7--------| 
D|---5----------|---5----------|---5----------|---5----------| 
A|--------------|--------------|--------------|--------------| 
E|--------------|--------------|--------------|--------------|
		  

Full key step upFull key step up
Half key step upHalf key step up
Half key step downHalf key step down
Full key step downFull key step down
hide glossary

See also:

tabs Rihanna - Music of the sun tabs Ne-yo - So sick tabs Eric Johnson - SRV tabs Plain White T's - Write You a Song tabs The Speaks - High tabs Santa Esmeralda - You!re my everything/intro
e-chords

Other versions:

tabs Corinne Bailey Rae - Like A Star
auto scroll beats size up size down change color hide chords drawings
tab show chords e-chords YouTube Clip e-chords hide all tabs e-chords go to top tab

share