Corey Smith

Twenty-One

Corey Smith

tabs Expert expert

by  JVB_36079

save to print version add songbook text version e-mail correct tuner
chordsukulelecavacokeyboardtabbassdrumsharmonicaflute Guitar Pro
close

there isn't a video lesson for this song

chords

Twenty-One

	  		nd 
 
 
E----0h2---0------2---2----------------------------3------------0---------| 
B---------------3-------3------3--2-----0------------0----0h3-------2-3---| 
G------------------------------------------0------------------------------| 
D--0----------------------------------------------------------------------| 
A------------4------2---------------------------------------------0-------| 
E-------------------------------------3---------2-------0-----------------| 
 
 
E----0h2---0------2---2---------------------------------------------------| 
B---------------3-------3------3--2-----0-----------------------2h3-------| 
G------------------------------------------0----------0-------2-----------| 
D--0------------------------------------------------0-------2-------------| 
A------------4------2-----------------------------0-------2---------------| 
E-------------------------------------3-----------------------------------| 
 
this just the intro 

		  

See also:

tabs Blind Blake - One Time Blues tabs Robert Johnson - Red Hots tabs Rival Sons - Keep On Swinging tabs John Lee Hooker - whiskey and wimmen tabs Mississipi John Hurt - Stack O' Lee Blues tabs Muddy Waters - I can't be satisfied
e-chords

Other versions:

tabs Corey Smith - Twenty-One tabs August Burns Red - Twenty-one Grams
auto scroll beats size up size down change color hide chords drawings
tab show chords e-chords YouTube Clip e-chords hide all tabs e-chords go to top tab

share