Comunidades

Nin-Jitsu - Aperitivado Tab

Comunidades

Difficulty: nolevelnolevel

by MoRtE%2D

tuner correct add songbook print version text version save to e-mail
chordsukulelecavacokeyboardtabbassdrumsharmonicsflute Guitar Pro
close

there isn't a video lesson for this song

request
chords

Nin-Jitsu - Aperitivado

  		Verso 
 
1-1-3-4--------1-1-3-4---------------------------------------- 
-----------------------6-6-6-6-------------------------------- 
-------------------------------------------------------------- 
-------------------------------------------------------------- 
-------------------------------------------------------------- 
-------------------------------------------------------------- 
 
 
Refrão 
1-1---1-3-4/11-11-11-11---1-1---1-3-4--4-0-0------------------ 
3-3---3-5-6/13-13-13-13---3-3---3-5-6--6-2-2------------------ 
3-3---3-5-6/13-13-13-13---3-5---3-5-6--6-2-2------------------ 
-------------------------------------------------------------- 
-------------------------------------------------------------- 
-------------------------------------------------------------- 
 
"solinho" 
--------1---1-3-4 
6h8-----3---3-5-6 
--------3---3-5-6 
----------------- 
----------------- 
----------------- 
 
--------1---1-3-4/11-11-11-11 
6h8-----3---3-5-6/13-13-13-13 
--------3---3-5-6/13-13-13-13 
----------------------------- 
----------------------------- 
----------------------------- 
 
--------1---1-3-4 
--------3---3-5-6 
5h6-----3---3-5-6 
----------------- 
----------------- 
----------------- 
 
--------1---1-3-4/11-11-11-11 
--------3---3-5-6/13-13-13-13 
5h6-----3---3-5-6/13-13-13-13 
----------------------------- 
----------------------------- 
----------------------------- 
 
APERITIVADO 
 
Verso: 
 
Pra ficá do seu lado  
Só se for aperitivado 
Pra ficá do seu lado  
Só se for aperitivado 
 
2x: 
Tua presença de fato só diminui o meu extrato 
Não quero ser ingrato isso tá fora de questão 
Não vô pagá o pato nem vô esquentá o prato 
Eu preservo meus contato não sô X9 de patrão 
 
Refrão: 
Pra ficá do seu lado  
Só se for aperitivado 
Pra ficá do seu lado  
Só se for aperitivado 
 
Verso: 
Eu não agüento mais essa conversa 
De que tudo não tá bom de que tudo não presta 
O meu aperitivo pode ser um bem fechado 
Ou um chopp-garoto com um copo bem gelado 
 
A bola de neve cada vez aumenta 
Se você vacilá você não agüenta 
Não sô advogado mas tenho quem me representa 
Na hora do pega pra capá a adrenalina aumenta 
 
A bola de neve cada vez aumenta 
Se você vacilá você não agüenta 
Não sô advogado mas tenho quem me representa 
Na hora do pega pra capá a adrenalina aumenta 
 
Refrão: 
Pra ficá do seu lado  
Só se for aperitivado 
Pra ficá do seu lado  
Só se for aperitivado 
 
"Solinho" 
 
A bola de neve cada vez aumenta 
Se você vacilá você não agüenta 
Não sô advogado mas tenho quem me representa 
Na hora do pega pra capá a adrenalina aumenta 
 
A bola de neve cada vez aumenta 
Se você vacilá você não agüenta 
Não sô advogado mas tenho quem me representa 
Na hora do pega pra capá a adrenalina aumenta 
 
Refrão: 
Pra ficá do seu lado  
Só se for aperitivado 
Pra ficá do seu lado  
Só se for aperitivado 
 
Prá Fica Do Seu lado 
Prá Fica Do Seu lado 
Prá Fica Do Seu lado 
Prá Fica Do Seu lado 
	  

Search Paypal
auto scroll beats size up size down change color hide chords drawings
tab show chords e-chords YouTube Clip e-chords hide all tabs e-chords go to top tab

share with facebook