Comisario Pantera

Inerte

Comisario Pantera

tabs

by  CARLLUZ

save to print version add songbook text version e-mail correct tuner
chordsukulelecavacokeyboardtabbassdrumsharmonicaflute Guitar Pro
close

there isn't a video lesson for this song

chords

Inerte

Key:  Bm More
Inerte Key F#mF#m
Inerte Key GmGm
Inerte Key G#mG#m
Inerte Key AmAm(one step down)
Inerte Key A#mA#m(half step down)
Inerte Key BmBm(original key)
Inerte Key CmCm(half step up)
Inerte Key C#mC#m(one step up)
Inerte Key DmDm
Inerte Key D#mD#m
Inerte Key EmEm
Inerte Key FmFm
	  		
Intro 

Guitarra 02 
                      Bm   E    F#m7 
|------------------|--2----0----2----| 
|------------------|--3----0----2----| 
|------------------|.-4----1----2---.|2 veces 
|------------------|.-4----2----2---.| 
|-------2-2h4p2-0--|--2----2----4----| 
|-0-2-5------------|-------0----2----| 

Verso 

  Bm    E     C#m  Cm     Bm    E     Amaj7 
|-2-----0-----4----3------2-----0-----0-----| 
|-3-----0-----5----4------3-----0-----2-----| 
|-4-----1-----6----5------4-----1-----1-----| 
|-4-----2-----6----5------4-----2-----2-----| 
|-2-----2-----4----3------2-----2-----0-----| 
|-------0-----------------------0-----------| 

  Bm    E     C#m  Cm     Bm    E     F#m7 
|-2-----0-----4----3------2-----0-----2-----| 
|-3-----0-----5----4------3-----0-----2-----| 
|-4-----1-----6----5------4-----1-----2-----| 
|-4-----2-----6----5------4-----2-----2-----| 
|-2-----2-----4----3------2-----2-----4-----| 
|-------0-----------------------0-----2-----| 

Coro 

  Bm    E     Amaj7 
|-2-----0-----0-----| 
|-3-----0-----2-----| 
|-4-----1-----1-----| 
|-4-----2-----2-----| 
|-2-----2-----0-----| 
|-------0-----------| 

  Bm     E     F#m7 
|--2-----0-----2-----| 
|--3-----0-----2-----| 
|.-4-----1-----2----.|2 veces 
|.-4-----2-----2----.| 
|--2-----2-----4-----| 
|--------0-----2-----| 

Puente 
                     Bm   E    F#m7 
|--------------------2----0----2----| 
|--------------------3----0----2----| 
|.-------------------4----1----2---.|2 veces 
|.-------------------4----2----2---.| 
|-------2-2h4p2-0----2----2----4----| 
|-0-2-5-------------------0----2----| 

Verso 

  Bm    E     C#m  Cm     Bm    E     Amaj7 
|-2-----0-----4----3------2-----0-----0-----| 
|-3-----0-----5----4------3-----0-----2-----| 
|-4-----1-----6----5------4-----1-----1-----| 
|-4-----2-----6----5------4-----2-----2-----| 
|-2-----2-----4----3------2-----2-----0-----| 
|-------0-----------------------0-----------| 

  Bm    E     C#m  Cm     Bm    E     F#m7 
|-2-----0-----4----3------2-----0-----2-----| 
|-3-----0-----5----4------3-----0-----2-----| 
|-4-----1-----6----5------4-----1-----2-----| 
|-4-----2-----6----5------4-----2-----2-----| 
|-2-----2-----4----3------2-----2-----4-----| 
|-------0-----------------------0-----2-----| 

Coro y outro 

  Bm    E     Amaj7 
|-2-----0-----0-----| 
|-3-----0-----2-----| 
|-4-----1-----1-----| 
|-4-----2-----2-----| 
|-2-----2-----0-----| 
|-------0-----------| 

   Bm    E     F#m7 
|--2-----0-----2-----| 
|--3-----0-----2-----| 
|.-4-----1-----2----.|6 veces 
|.-4-----2-----2----.| 
|--2-----2-----4-----| 
|--------0-----2-----| 

   Bm    E     F#m 
|--2-----0-----2~~~~~| 
|--3-----0-----2~~~~~| 
|--4-----1-----2~~~~~| 
|--4-----2-----4~~~~~| 
|--2-----2-----4~~~~~| 
|--------0-----2~~~~~| 

----------------------------------------------------------------------------------------------- 
Guitarra 01 
Intro 

|-------------------------------------------------------------------------------------| 
|-3/(5)~~-----3/(5)~~-------3/(5)-----3/(5)---/(7)?9hbrp7---3/(5)-----5/(4)/(5)~~-----| 
|---------6-4---------6~~~~-------6-4-----------------------------6-4-----------------| 
|-------------------------------------------------------------------------------------| 
|-------------------------------------------------------------------------------------| 
|-------------------------------------------------------------------------------------| 

|----------------2---2-----| 
|-5-3-5--------2-----------| 
|-6-4-6--2---2-----2-------| 
|----------4---------------| 
|--------------------------| 
|--------------------------| 

Verso 

|----------------------------------------------------------------| 
|---7---7---7---7----9---9---9---9-------------------------------| 
|-7---7---7---7----9---9---9---9------9----9--8---7-7-7-7-7-7-7--| 
|----------------------------------11---11----10--9-9-9-9-9-9-9--| 
|----------------------------------------------------------------| 
|----------------------------------------------------------------| 

|--------------------4---7---4---7---| 
|------------------5---5---5---5-----| 
|-4-4-4-4-4-4-4--6-------------------| 
|-6-6-6-6-6-6-6----------------------| 
|------------------------------------| 
|------------------------------------| 

|----------------------------------------------------------------| 
|---7---7---7---7----9---9---9---9-------------------------------| 
|-7---7---7---7----9---9---9---9------9----9--8---7-7-7-7-7-7-7--| 
|----------------------------------11---11----10--9-9-9-9-9-9-9--| 
|----------------------------------------------------------------| 
|----------------------------------------------------------------| 
                   F#m 
|------------------5--------------| 
|------------------7--------------| 
|-4-4-4-4-4-4-4----6--------------| 
|-6-6-6-6-6-6-6----7--------------| 
|---------------------------------| 
|---------------------------------| 

Coro 

|-7--7--7--7--7--7--7--7------9---12---9---12--| 
|-7--7--7--7--9--9--9--9----9---9----9---9-----| 
|-7--7--7--7--9--9--9--9--9--------------------| 
|----------------------------------------------| 
|----------------------------------------------| 
|----------------------------------------------| 

|-7--7--7--7--7--7--7--7--------------------------| 
|-7--7--7--7--9--9--9--9-------------5-7-/(10)-9--| 
|-7--7--7--7--9--9--9--9---------4-6--------------| 
|--------------------------4-6-7------------------| 
|------------------------4------------------------| 
|-------------------------------------------------| 

|-7--7--7--7--7--7--7--7---------------------------------------| 
|-7--7--7--7--9--9--9--9---9hbr-hbr-hbr-hbr?9hbr-hbr-hbr~~-----| 
|-7--7--7--7--9--9--9--9---------------------------------------| 
|--------------------------------------------------------------| 
|--------------------------------------------------------------| 
|--------------------------------------------------------------| 

Puente 

|-------------------------------------------------------------------------------------| 
|-3/(5)~~-----3/(5)~~-------3/(5)-----3/(5)---/(7)?9hbrp7---3/(5)-----5/(4)/(5)~~-----| 
|---------6-4---------6~~~~-------6-4-----------------------------6-4-----------------| 
|-------------------------------------------------------------------------------------| 
|-------------------------------------------------------------------------------------| 
|-------------------------------------------------------------------------------------| 

|----------------2---2-----| 
|-5-3-5--------2-----------| 
|-6-4-6--2---2-----2-------| 
|----------4---------------| 
|--------------------------| 
|--------------------------| 

Verso 

|-------------------------------------------------------| 
|-7~~~~---9~~~------------------------------------------| 
|-7~~~~---9~~~----9~~--8---7-7-7-7-7-7-7--4-4-4-4-4-4-4-| 
|-----------------11~~-10--9-9-9-9-9-9-9--6-6-6-6-6-6-6-| 
|-------------------------------------------------------| 
|-------------------------------------------------------| 

|-----4---7-------9--------12---------14---| 
|---5---5----------------------------------| 
|-6---------6/(9)---9/(12)----12/(14)------| 
|------------------------------------------| 
|------------------------------------------| 
|------------------------------------------| 

|-10----10----10----10-------------------------------------------12-11-| 
|-12----12----12----12-----12----12----12----12-----14----14-----14-13-| 
|----11----11----11----11-----13----13----13----13-----13----13--13-12-| 
|----------------------------------------------------------------------| 
|----------------------------------------------------------------------| 
|----------------------------------------------------------------------| 

|-10-10-10-10-10-10-10--12-12-12-12-12-12-12--9--9--9--9--9--9--9--9--9----|.. 
|-12-12-12-12-12-12-12--9--9--9--9--9--9--9---10-10-10-10-10-10-10-10-10---|.. 
|--------------------------------------------------------------------------| 
|--------------------------------------------------------------------------| 
|--------------------------------------------------------------------------| 
|--------------------------------------------------------------------------| 

Coro 

|-7--7--7--7--7--7--7--7------9---12---9---12--| 
|-7--7--7--7--9--9--9--9----9---9----9---9-----| 
|-7--7--7--7--9--9--9--9--9--------------------| 
|----------------------------------------------| 
|----------------------------------------------| 
|----------------------------------------------| 

|-7--7--7--7--7--7--7--7---------------------------| 
|-7--7--7--7--9--9--9--9-------------5-7-7/(10)-9--| 
|-7--7--7--7--9--9--9--9---------4-6---------------| 
|--------------------------4-6-7-------------------| 
|------------------------4-------------------------| 
|--------------------------------------------------| 

|-7--7--7--7--7--7--7--7----------------------------------------| 
|-7--7--7--7--9--9--9--9---9hbr-hbr-hbr-hbr?9hbr-hbr-hbr-hbr----| 
|-7--7--7--7--9--9--9--9----------------------------------------| 
|---------------------------------------------------------------| 
|---------------------------------------------------------------| 
|---------------------------------------------------------------| 

|-7--7--7--7--7--7--7--7---------------------------------------| 
|-7--7--7--7--9--9--9--9---9hbr-hbr-hbr-hbr?9hbr-hbr-hbr~~-----| 
|-7--7--7--7--9--9--9--9---------------------------------------| 
|--------------------------------------------------------------| 
|--------------------------------------------------------------| 
|--------------------------------------------------------------| 

Solo outro 

|--------12-------------------------12------12------12------------| 
|-12fb~~~---12fbr-12~~~--10-12fb-fb----12fb----12fb----pbr(12)-10-| 
|-----------------------------------------------------------------| 
|-----------------------------------------------------------------| 
|-----------------------------------------------------------------| 
|-----------------------------------------------------------------| 

|-----------12------------------------------------------------------| 
|-12fb-fb~~~---12fbr-12~~~--10----10hb------------------------------| 
|------------------------------11------11--9-11-9-----9-----9-------| 
|-------------------------------------------------11--9h11--9h11p9--| 
|-------------------------------------------------------------------| 
|-------------------------------------------------------------------| 

|----------------------------------------------------------------------| 
|----------------------------------------------------------------------| 
|----------------------------------------------------------------------| 
|-7---------------------------9-9-11-11-9-9-------9/-------------------| 
|---9~~~~/---/9-9-11-11-12-12---------------12-12-----/9-9-11-11-12-12-| 
|----------------------------------------------------------------------| 

|---------------------------------------------------------------9~~~~| 
|--------------------------------------------------------12-----11~~~| 
|-------------------------------------------9----11/(13)----13-------| 
|-9------------------------------7---9/(11)---11---------------------| 
|----9--9-7--7---------------7-9---9---------------------------------| 
|--------------9-7~~~/--/7-9-----------------------------------------| 
		  

Full key step upFull key step up
Half key step upHalf key step up
Half key step downHalf key step down
Full key step downFull key step down
hide glossary

See also:

tabs Ira! - Poço de Sensibilidade (Solo - Acustico Mtv) tabs Deep Purple - Smoke On The Water tabs Deep Purple - Smoke on the water (intro) tabs Ira! - Eu Quero Sempre Mais (Com Pitty, intro) tabs Deep Purple - Smoke on the Water (ver. 2) tabs Deep Purple - Knocking At Your Back Door
e-chords

Other versions:

tabs Comisario Pantera - Inerte
auto scroll beats size up size down change color hide chords drawings
tab show chords e-chords YouTube Clip e-chords hide all tabs e-chords go to top tab

share