Colour Haze

Raumschiffkommandant Single Version

Colour Haze

tabs

by  SABRJOAO

save to print version add songbook text version e-mail correct tuner
chordsukulelecavacokeyboardtabbassdrumsharmonicaflute Guitar Pro
close

there isn't a video lesson for this song

chords

Raumschiffkommandant Single Version

	  		------------------------------------------------------------------------------- 

(0:00) Facemelting Fuzz! 2nd half of the Mainriff 
D|-------------| 
A|-------------| 
F|-7-7-7-7-5h7-| 
C|-0-0-0-0-0-0-| 
G|-0-0-0-0-0-0-| 
C|-0-0-0-0-0-0-| 

(0:02) Facemelting Fuzz! The Mainriffage. Repeat 6 times. 
D|---------------------------------| 
A|---------------------------------| 
F|-7b8r7-5-7~--7-7~7-7~7-7~7-7~5h7-| 
C|-0-----0-0---0-0-0-0-0-0-0-0-0---| 
G|-0-----0-0---0-0-0-0-0-0-0-0-0---| 
C|-0-----0-0---0-0-0-0-0-0-0-0-0---| 

(0:19) Bass only 

(0:36) Verse. Play Clean or with light Overdrive. 
 Let the low C-String ring. Repeat 8 times. 
D|-------------------------------------------------------| 
A|-------------------------------------------------------| 
F|-------------------------------------------------------| 
C|---------------------3-5-------------------------3-5---| 
G|---------5b6r5-3-5-3-----3-----------5b6r5-3-5-3-----5-| 
C|-0---0-0~--------0~------0---0---0-0---------0---------| 

(1:22) Facemelting Fuzz! Again Main Riffage. Repeat 6 times. 
D|---------------------------------| 
A|---------------------------------| 
F|-7b8r7-5-7~--7-7~7-7~7-7~7-7~5h7-| 
C|-0-----0-0---0-0-0-0-0-0-0-0-0---| 
G|-0-----0-0---0-0-0-0-0-0-0-0-0---| 
C|-0-----0-0---0-0-0-0-0-0-0-0-0---| 

(1:39) Bass only 

(1:50) Verse. Play Clean or with light Overdrive. 
 Let the low C-String ring. Repeat 6 times. 
D|-------------------------------------------------------| 
A|-------------------------------------------------------| 
F|-------------------------------------------------------| 
C|---------------------3-5-------------------------3-5---| 
G|---------5b6r5-3-5-3-----3-----------5b6r5-3-5-3-----5-| 
C|-0---0-0~--------0~------0---0---0-0---------0---------| 

(2:25)Facemelting Fuzz! Outro riff till the end of the song. 
D|------------------------------------------------| 
A|------------------------------------------------| 
F|-14~~~------------------------------------------| 
C|-12---12-12-12-12-12-12-12-12-12-12-12-12-12-12-| 
G|-12---12-12-12-12-12-12-12-12-12-12-12-12-12-12-| 
C|-12---12-12-12-12-12-12-12-12-12-12-12-12-12-12-| 

(2:45) Solo Guitar. Heavy fuzzed. Not 100% accurate but pretty close. Laid back feel. 
D|-------------------------------------------| 
A|----------12-12h13p12----------12-12h13~~~-| 
F|-11h12h14-------------14-12-14-------------| 
C|-------------------------------------------| 
G|-------------------------------------------| 
C|-------------------------------------------| 

D|-------------------------------------------| 
A|----------12-12h13p12----------------------| 
F|-11h12h14-------------14-12\11-11h12-11~~~-| 
C|-------------------------------------------| 
G|-------------------------------------------| 
C|-------------------------------------------| 

D|---------------------------------------------------------------------------------------| 
A|----------12-12h13p12----------12-12h13-13/15-15-15h17p15----15-15h17p15----15----15~~~| 
F|-11h12h14-------------14-12-14----------------------------17-------------17----17------| 
C|---------------------------------------------------------------------------------------| 
G|---------------------------------------------------------------------------------------| 
C|---------------------------------------------------------------------------------------| 

D|-------------------------------------------| 
A|----------12-12h13p12----------------------| 
F|-11h12h14-------------14-12\11-11h12-11~~~-| 
C|-------------------------------------------| 
G|-------------------------------------------| 
C|-------------------------------------------| 

Thats it. Hope you enjoy this great Song! 

Oh and here are the lyrics (german) + translation: 

Lyrics (German) 

>Ich bin mein eigner Raumschiffkommandant, < 
>Ich reise, reise, reise in das Unbekannt. < 

>Chukka Chukka Raumschiff- Raumschiffkommandant.< 

Translation 

>I am a Spaceship-commander on my own< 
>I travel, travel, travel into the Unknown< 

>Chukka Chukka Spaceship, Spaceship-commander< 


************************************ 

| /   slide up 
| \   slide down 
| h   hammer-on 
| p   pull-off 
| ~   vibrato 
| +   harmonic 
| x   Mute note 
| b   Bend 
| pb  Pre-bend 
| br  Bend release 
| pbr Pre-bend release 
| brb Bend release bend 

************************************ 
		  

See also:

tabs Tokio Hotel - Wo Sind Eure Hnde tabs Tokio Hotel - Screamin' tabs Emil Bulls - Between The Devil And The Deep Blue Sea tabs Tokio Hotel - Monsoon tabs Hüsker Dü - Somewhere tabs Tokio Hotel - Stop Babe
e-chords

Other versions:

tabs Colour Haze - Raumschiffkommandant Single Version
auto scroll beats size up size down change color hide chords drawings
tab show chords e-chords YouTube Clip e-chords hide all tabs e-chords go to top tab

share