Cólera

Meu Igual

Cólera

tabs

save to print version add songbook text version e-mail correct tuner
chordsukulelecavacokeyboardtabbassdrumsharmonicaflute Guitar Pro
close

there isn't a video lesson for this song

chords

Meu Igual

	  		
Intro (2xs) (baixo)
  G                    B                          E
G----------------------------------------------------------------------
D-------------------------------------------------12---------12--------
A-9h10---9-10-12-10-12-14---12-14-14-12-14-12-14----15-14-12---15-14-12-
E-----------------------------------------------------------------------
  C                                 D
G-----------------------------------------------------------------------
D-----------------------------------------------------------------------
A-15-14-12-14-12-10-12-10-9-10-9-7-9-7-5-7-5-3-5-3-2-3-2-0--------------
E----------------------------------------------------------3------------

Intro (guitarra)
  G   B  E    C   D    
E------------------------------------------------------------------------------------
B------------------------------------------------------------------------------------
G-----4-------5---7------------------------------------------------4-------------4---
D-5---4---2---5---7----------------5---------------5---------4--------------4--------
A-5---2---2---3---5----------5---------------5---------2-2-2---2-2---2-2-2-2--2-2----
E-3-------0------------3-3-3---3-3---3-3-3-3---3-3-----------------------------------
  (      p.m.      )

E-----------------------------------------------------------------------
B-----------------------------------------------------------------------
G-----------------------------------------5---------------7-------------
D-------------2------------2--------5---------------7-------------------
A-------2-------------2-------3-3-3---3-3----5-5-5-5---5-5--------------
E-0-0-0---0-0--0-0-0-0--0-0---------------------------------------------

Verso
  G   B   E   C   D
E---------------------
B---------------------
G-----4-------5---7---
D-5---4---2---5---7---
A-5---2---2---3---5---
E-3-------0-----------
  (      p.m.      )

Segue com...
  G   C   G   D
E-3-------3-----------------
B-3-------3-----------------
G-4---5---4---77x7xx7x777---
D-5---5---5---77x7xx7x777---
A-5---3---5---55x5xx5x555---
E-3-------3-----------------
  G   G F# E      G   B  D#/F        C   D   G   B   E   C   D    
E---------------------------------------------------------------
B---------------------------------------------------------------
G--------(p.m.)------4---8-9--------5---7-------4-------5---7---
D-5---5-4-2...---5---4---8-9--------5---7---5---4---2---5---7---
A-5---5-4-2...---5---2---6/7-(4x)---3---5---5---2---2---3---5---
E-3---3-2-0...---3--------------------------3-------0-----------

"Quando vamos..."
  B   C   B   A   B   C   D
E-----------------------------
B-----------------------------
G-4---5---4---2---4---5---7---
D-4---5---4---2---4---5---7---
A-2---3---2---0---2---3---5---
E-----------------------------

Refrão
  G         C   G    G        D   G  
E---3-----------------3---------------
B---3-----------------3---------------
G---4-(4xs)-5---------4-(4xs)-7-------
D-5---------5---5---5---------7---5---
A-5---------3---5---5---------5---5---
E-3-------------3---3-------------3---

Pós
  G   B   E 
E-------------------------------------
B-------------------------------------
G--------(p.m)------------------------
D-5---4---2...------------------------
A-5---4---2...------------------------
E-3---2---0...------------------------

Solo (1:47)
  G         B
E-------------------2/333-2/333-6-3-3-6-3-6b7-3--------------6b7-3-3-6-3-3-6-3-3-6-3-6-3-3--10-8-10-8-10-8-10-8--15-151515-
B-------------------2/333-2/333----------------6-3-6-3-6-3-6----------------------------6------------------------15-151515-
G-0-2h4-2-0----------------------------------------------------------------------------------------------------------------
D-----------4--------------------------------------------------------------------------------------------------------------
A--------------------------------------------------------------------------------------------------------------------------
E--------------------------------------------------------------------------------------------------------------------------

Base do Solo : G C G D G

Verso
  G   B  D#/F        C   D   G   B   E   C   D    
E------------------------------------------------
B------------------------------------------------
G-----4---8-9--------5---7-------4-------5---7---
D-5---4---8-9--------5---7---5---4---2---5---7---
A-5---2---6/7-(4x)---3---5---5---2---2---3---5---
E-3--------------------------3-------0-----------
                             (  p.m.  )

"Quando vamos..."

Refrão (2xs)

Pós

Final
  G 
E---
B---
G---
D-5-
A-5-
E-3-


_______________________________________________________
Contribuição: Gabriel "Satriani" Vendramini
		  

Full key step upFull key step up
Half key step upHalf key step up
Half key step downHalf key step down
Full key step downFull key step down
hide glossary

See also:

tabs Capital Inicial - Natasha tabs Legião Urbana - Índios tabs Legião Urbana - Hoje A Noite Não Tem Luar tabs Legião Urbana - Ainda É Cedo tabs Raul Seixas - Metamorfose Ambulânte (solo) tabs Ultraje a Rigor - Ciúme
e-chords

Other versions:

tabs Cólera - Meu Igual
auto scroll beats size up size down change color hide chords drawings
tab show chords e-chords YouTube Clip e-chords hide all tabs e-chords go to top tab

share