Coldrain

Final Destination (base)

Coldrain

tabs Intermediate intermediate

by  ABELAMIN

save to print version add songbook text version e-mail correct tuner
chordsukulelecavacokeyboardtabbassdrumsharmonicaflute Guitar Pro
close

there isn't a video lesson for this song

chords

Final Destination (base)

(Masato, Katsuma, RxYxO, Sugi, Y.K.C)

	  		Intro 1:

C|---------------------------------
G|---------------------------------
D#|--------7-7-7-------------------
A#|--6-6---x-x-x---8-8-8---7-7-----
F|---4-4---5-5-5---6-6-6---5-5-----
A#|--4-4---------------------------


Intro 2:

C|----------------------------------------
G|----------------------------------------
D#|---------------------------------------
A#|--5---7---3---3-----5---7---3---10-----  (2x)
F|---5---5---1---3-----5---5---1---8------
A#|--5-----------3-----5------------------


Se quiser tentar a Intro 2 da guitarra solo (Y.K.C.):

C|--------------------------------------------------------
G|---------13-------13---------------13-------------------
D#|--10-12----10-12----10-14~--10-12----12-10-12b(H.A.)---
A#|-------------------------------------------------------
F|--------------------------------------------------------
A#|-------------------------------------------------------


Verso:

C|----------------------------------------------------
G|----------------------------------------------------
D#|---------------------------------------------------
A#|---------------------------------------------------
F|----------------------------------------------------  (4x)
A#|---------------------------------------------------



C|----------------------------------------------------
G|----------------------------------------------------
D#|---------------------------------------------------
A#|---------------------------------------------------
F|---------5-5-5-5---------8-8-8-8--------------------  (4x)
A#|--5-5-5---------8-8-8-8----------------------------


Refrão:

  I can't look back,          not anymore.....

C|----------------------------------------------------
G|----------------------------------------------------
D#|---------------------------------------------------
A#|--8-8-8-8-8-8...---------------8-8-8-8-8-8-8...----
F|---6-6-6-6-6-6...---------------5-5-5-5-5-5-5...----
A#|---------------------------------------------------


  I've given up too much to   throw this away now

C|----------------------------------------------------
G|----------------------------------------------------
D#|---------------------------------------------------
A#|--5-5-5-5-5-5...------------3-3-3-3-3-3...---------
F|---5-5-5-5-5-5...------------3-3-3-3-3-3...---------
A#|--5-5-5-5-5-5...------------3-3-3-3-3-3...---------


  I can't look back,          not anymore.....

C|----------------------------------------------------
G|----------------------------------------------------
D#|---------------------------------------------------
A#|--8-8-8-8-8-8...---------------8-8-8-8-8-8-8...----
F|---6-6-6-6-6-6...---------------5-5-5-5-5-5-5...----
A#|---------------------------------------------------


  Cause I know (know), now (now), I'm heading to my final destination

C|----------------------------------------------------
G|----------------------------------------------------
D#|---------------------------------------------------
A#|--5-5-5-5-5-5...------------3-3-3-3-3-3...---------
F|---5-5-5-5-5-5...------------3-3-3-3-3-3...---------
A#|--5-5-5-5-5-5...------------3-3-3-3-3-3...---------


--Verso--

--Refrão--

Passagem do refrão para a ponte:

C|----------------------------------------------------
G|----------------------------------------------------
D#|---------------------------------------------------
A#|--8-----8-----5-----3------------------------------
F|---6-----5-----5-----3------------------------------
A#|--------------5-----3------------------------------


Ponte (They can try to take away...):

C|----------------------------------------------------
G|----------------------------------------------------
D#|---------------------------------------------------
A#|--5-5--3h5-3h5--1-1-1-1-1-3-3-3-3------------------  (4x)
F|---5-5-----------1-1-1-1-1-3-3-3-3------------------
A#|--5-5-----------1-1-1-1-1-3-3-3-3------------------



C|---------------------------------
G|---------------------------------
D#|--------7-7-7-------------------
A#|--6-6---x-x-x---8-8-8---7-7-----
F|---4-4---5-5-5---6-6-6---5-5-----
A#|--4-4---------------------------


--Refrão-- 
		  

See also:

tabs Deep Purple - Deep Purple - Smoke On The Water tabs Ira! - Dias de Luta (Intro - Acustico Mtv) tabs Deep Purple - Smoke on The Water (ver.3) tabs Deep Purple - Into The Fire tabs Deep Purple - When a Blind man cries tabs Deep Purple - Highway Star
e-chords

Other versions:

tabs Coldrain - Final Destination (base)
auto scroll beats size up size down change color hide chords drawings
tab show chords e-chords YouTube Clip e-chords hide all tabs e-chords go to top tab

share