Coldplay

home > Coldplay

Square One Tab

Coldplay

Difficulty: nolevelnolevel

by gabriel101

tuner correct add songbook print version text version save to e-mail
chordsukulelecavacokeyboardtabbassdrumsharmonicsflute Guitar Pro
chords

Square One

Year: 2005 - Album: X & Y

  		SQUARE ONE 
Tabbed by Stanley ([email protected]) 
 
intro: keyboards and voice  (base:Cm) 
You're in control is there anywhere you wanna go? 
You're in control is there anything you wanna know? 
The future's for discovering 
The space in which we travel in  
 
 
   Cm            Gm/D           Ab7+                          Cm             
E |-3-----------|--3-----------|--3-----------|--3-----------|--3---------- 
B |-4-----------|--3-----------|--4-----------|--4-----------|--4---------- 
G |-5-----------|--3-----------|--5-----------|--5-----------|--5---------- 
D |-5-----------|--0-----------|--5-----------|--5-----------|--5---------- 
A |-3-----------|--------------|--x-----------|--x-----------|--3---------- 
E |-------------|--------------|--4-----------|--4-----------|------------- 
        From the  top   of  the  first  page                     to  the   
 
 
   Eb7+          Fm7/9                         Cm             Gm/D 
E |-3-----------|--3-----------|--3-----------|--3-----------|--3---------- 
B |-3-----------|--4-----------|--4-----------|--4-----------|--3---------- 
G |-3-----------|--5-----------|--5-----------|--5-----------|--3---------- 
D |-5-----------|--3-----------|--3-----------|--5-----------|--0---------- 
A |-6-----------|--------------|--------------|--3-----------|------------- 
E |-------------|--------------|--------------|--------------|------------- 
    end  of  the  last  page                       from the start in your 
       
 
 
   Ab7+                         Bb                            Ab 
E |-3-----------|--3-----------|--------------|--------------|------------- 
B |-4-----------|--4-----------|--3-----------|--3-----------|--4---------- 
G |-5-----------|--5-----------|--3-----------|--3-----------|--5---------- 
D |-5-----------|--5-----------|--3-----------|--3-----------|--6---------- 
A |-x-----------|--x-----------|--1-----------|--1-----------|--6---------- 
E |-4-----------|--4-----------|--------------|--------------|--4---------- 
    own  way    you just want somebody listening to what you say      it 
 
 
                       F7                            Cm 
E |-------------------|--------------|--------------|--3-----------|--3---- 
B |-4-----------------|--4-----------|--4-----------|--4-----------|--4---- 
G |-5-----------------|--2-----------|--2-----------|--5-----------|--5---- 
D |-6-----------------|--1-----------|--1-----------|--5-----------|--5---- 
A |-6-----------------|--3-----------|--3-----------|--3-----------|--3---- 
E |-4-----------------|--1-----------|--1-----------|--------------|------- 
 doesn't matter who you are                           
 
 
           Eb              Dm/A          Cm  
E |-------|--------------|--------------|--3-----------|--3--------------|- 
B |-------|--4-----------|--6-----------|--4-----------|--4--------------|- 
G |-------|--3-----------|--7-----------|--5-----------|--5--------------|- 
D |-------|--5-----------|--7-----------|--5-----------|--5--------------|- 
A |-------|--6-----------|--0-----------|--3-----------|--3--------------|- 
E |-------|--------------|--------------|--------------|-----------------|- 
        under the surface trying to break through 
           deciphering  the code   in you      
 
 
   Eb            Gm             Cm              Eb            F   
E |-------------|--3-----------|--3-----------|--------------|--1---------- 
B |-4-----------|--3-----------|--4-----------|--4-----------|--1---------- 
G |-3-----------|--3-----------|--5-----------|--3-----------|--2---------- 
D |-5-----------|--5-----------|--5-----------|--5-----------|--3---------- 
A |-6-----------|--5-----------|--3-----------|--6-----------|--3---------- 
E |-------------|--3-----------|--------------|--------------|--1---------- 
 I need a compass draw me a map            I'm on the top I can't getback 
   
 
 
   Cm 
E |-3-----------|--3-----------|- 
B |-4-----------|--4-----------|- 
G |-5-----------|--5-----------|- 
D |-5-----------|--5-----------|- 
A |-3-----------|--3-----------|- 
E |-------------|--------------|- 
  whoooooo   whooooo 
 
 
 Cm        Gm/D         Ab7+   
 The first line  on the first page 
 Cm     Eb7+       Fm7/9           
 to the end of the last page (you were looking at) 
 Cm       Gm/D          Ab7+             
 from the start in your own way  you just want 
 Bb                             Ab 
 somebody listening to what you say 
                           F7 
 it doesn't matter who you are 
 
 Cm    Gm/D    Ab7+ 
  
 Cm    Eb7+    Fm7/9 
 
 Cm    Gm/D    Ab7+ 
                 you just want 
 Bb                             Ab 
 somebody listening to what you say   you just want 
 Fm       Bb                     Ab 
 somebody listening to what they say   
                           F7   
 it doesn't matter who you are 
 
 it doesn't matter who you are 
 
 
 
 outro (semplified version) 
 Ab  
 is there anybody out there who  
    Fm7 
 is lost and hurt and lonely too 
          Cm                             Bb    
 are they bleeding all your colours into one? 
                 Ab                
 and if you come undone 
                                          
 as if you've been run through 
      Fm7                                    
 some catapult it fired you 
     Cm                            Bb       
 you wonder if your chance'll ever come 
                       Ab               
 or if you're stuck in square one 
 

	  

Full key step upFull key step up
Half key step upHalf key step up
Half key step downHalf key step down
Full key step downFull key step down
Search Paypal
auto scroll beats size up size down change color hide chords drawings
tab show chords e-chords YouTube Clip e-chords hide all tabs e-chords go to top tab