Coldplay

home > Coldplay

Shiver Tab

Coldplay

Difficulty: AdvancedAdvanced

tuner correct add songbook print version text version save to e-mail
chordsukulelecavacokeyboardtabbassdrummharmonicsflute Guitar Pro
chords

Shiver

Year: 2000 - Album: Live 2003

(Martin, Champion, Buckland , Berryman)

  		A parte rítmica é bem complicada, mas assistindo ao vídeo e ouvindo a música,
 tenho certeza que esta afinação está correta.

 
 Guitarra 1 : E A D G# B E

 Guitarra 2 : E A D G  B E

 INTRO:
         
    Guitarra 1     

  e|--0-----0-----0---|
  B|--0-----0-----0---|
 G#|--0-----7-----0---|
  D|--2-----9-----2---|
  A|--2-----9-----2---|
  E|--0-----7-----0---|

    Guitarra 2

  e|--12----11---12---9---11---12---9---11---12---9---11---12---9---11---12----
  B|--12-----------------------------------------------------------------------
  G|---9--9----9----9---9----9----9---9----9----9---9----9----9---9----9----9--
  D|---------------------------------------------------------------------------
  A|---------------------------------------------------------------------------
  E|---------------------------------------------------------------------------

  e|----9---11---12---9---11---12---9---12--|
  B|----------------------------------------|
  G|--9---9----9----9---9----9----9---9-----|
  D|----------------------------------------|
  A|----------------------------------------|
  E|----------------------------------------|

    Guitarra 1

  e|--0----0----0----0---     e|--0----0--|
  B|--0----0----0----0---     B|--0----0--|
 G#|--7----0----5----0---    G#|--5----0--|
  D|--9----4----7----6--- x3  D|--7----6--|
  A|--9----4----7----6---     A|--7----6--|
  E|--7----2----5----4---     E|--5----4--|

    Guitarra 2

  e|-----------------------------------------------------------------
  B|-----------------------------------------------------------------
  G|--6-s-8-8-8-8-s-6-6-s-9-9-9-9-s-6-6-s-8-8-8-8-s-6----------------
  D|--------------------------------------------------6-6-6-6-s-9-9-- x2
  A|-----------------------------------------------------------------
  E|-----------------------------------------------------------------

 
 
  e|--------------------------------------------------------------------------------|
  B|--------------------------------------------------------------------------------|
  G|--6-s-8-8-8-8-s-6-6-s-9-9-9-9-s-14-14-14-14-14-s-16-s-13-13-13-13--6-6-s-8-s-4--|
  D|--------------------------------------------------------------------------------|
  A|--------------------------------------------------------------------------------|
  E|--------------------------------------------------------------------------------|

 VERSO:

    Guitarra 1

  e|--4---4---4---7---7---7---4---4---4---7---7---7-|-0------------------|
  B|--0---0---0---0---0---0---0---0---0---0---0---0-|-0------------------|
 G#|--0---0---0---0---0---0---0---0---0---0---0---0-|-7------------------|
  D|--6---6---6---6---6---6---6---6---6---6---6---6-|-9------------------|
  A|--7---7---7---7---7---7---7---7---7---7---7---7-|-9------------------|
  E|------------------------------------------------|-7------------------|

    Guitarra 2

  e|-----------------------------------------------|------14----12-------11----------9--------|
  B|-----------------------------------------------|---12----------12-------12---------12-----|
  G|-13~~~~~---------------------------------------|-11-------11-------11-------11-11------11-|
  D|-----------------------------------------------|------------------------------------------|
  A|-----------------------------------------------|------------------------------------------|
  E|-----------------------------------------------|------------------------------------------|

Parada: (But all in dark....)

    Guitarra 1

  e|--0-----0--0--0-|--0-------0---------|
  B|--0-----0--0--0-|--0-------0---------|
 G#|--5-----2--2--2-|--4-------7---------|
  D|--6-----4--2--4-|--6-------9---------|
  A|--4-----4--4--4-|--5-------9---------|
  E|--------2--2--2-|----------7---------|

    Guitarra 2

  e|---------------------------------------------------------------------------
  B|---------------------------------------------------------------------------
  G|----9-9-9-9-9-8-8-8-6-6-6---9-9-9-9-9-8-8-8-6-6-6---9-9-9-9-9-8-8-8-6-6-6--
  D|--6-----------------------6-----------------------8------------------------
  A|---------------------------------------------------------------------------
  E|---------------------------------------------------------------------------

  e|--------------------------------------------------------------------------------
  B|--------------------------------------------------------------------------------
  G|----9-9-9-9-9-8-8-8-s-11-11-11---9-9-9-9-9-8-8-8-6-6-6---9-9-9-9-9-8-8-8-6-6-6--
  D|--8----------------------------6-----------------------6------------------------
  A|--------------------------------------------------------------------------------
  E|--------------------------------------------------------------------------------

  e|-------------------------------------------------------------|
  B|----0---0-------0---0--------0----0---------0----0----0------|
  G|--4---4---4-s-8---8---8-s-11---11---11-s-14---14---14---14---|
  D|-------------------------------------------------------------|
  A|-------------------------------------------------------------|
  E|-------------------------------------------------------------|

 PRE-REFRÃO: (So, you want me to change...)

    Guitarra 1

  e|--0---0---0---0--            e|--0---0---0-0-0-0----0--|
  B|--0---0---0---0--            B|--0---0---0-0-0-0----0--|
 G#|--0---7---7---7--           G#|--0---7---7-7-7-7----7--|
  D|--6---5---9---5-- x2         D|--6---5---9-9-9-9----9--| x1
  A|--6---6---9---6--            A|--6---6---9-9-9-9----7--|
  E|--4--------------            E|--4---------------------|
 
    Guitarra 2

  e|--------------------------------------------------------------------------------
  B|--------------------------------------------------------------------------------
  G|-------8------------8------------8------------8------------8------------8-------
  D|-----9------9-----9------9-----9------9-----9------9-----9------9-----9------9--
  A|--11-----11----10-----10----11-----11----10-----10----11-----11----10-----10----
  E|--------------------------------------------------------------------------------

  e|--------------------------------------------------------------------------------|
  B|--------------------------------------------------------------------------------|
  G|------8----------8-----------8------------8-----------8----------8--------8\--|
  D|----9-----9----9-----9-----9------9-----9------9----9-----9----9-----9----9\--|
  A|--9-----9----9-----9----11-----11----10-----10----9-----9----9-----9------7\--|
  E|--------------------------------------------------------------------------------|

Refrão: é na secunda parte da introdução

Meio 8: A 1º parte da introdução

 OUTRO:

    Guitarra 1

  e|--4---4---4---7---7---7---4---4---4---7---7---7---|
  B|--0---0---0---0---0---0---0---0---0---0---0---0---|
 G#|--0---0---0---0---0---0---0---0---0---0---0---0---|
  D|--6---6---6---6---6---6---6---6---6---6---6---6---| x 2 
  A|--7---7---7---7---7---7---7---7---7---7---7---7---|
  E|--------------------------------------------------|

    Guitarra 2

  e|-------------------------------|
  B|---9---12----9---12----9---12--|
  G|--13---13---13---13---13---13--|
  D|--14---14---14---14---14---14--|
  A|-------------------------------|
  E|-------------------------------|
	  

Full key step upFull key step up
Half key step upHalf key step up
Half key step downHalf key step down
Full key step downFull key step down
Search Paypal
auto scroll beats size up size down change color hide chords drawings
tab show chords e-chords YouTube Clip e-chords hide all tabs e-chords go to top tab