Coldplay

home > Coldplay

Clocks(versão fácil) Tab

Coldplay

Difficulty: BeginnerBeginner

by MARCELO+FISS

tuner correct add songbook print version text version save to e-mail
chordsukulelecavacokeyboardtabbassdrumsharmonicsflute Guitar Pro
chords

Clocks(versão fácil)

  		 * Para ser tocado no tom usado pela banda é preciso mover tudo uma casa para a direita(mais aguda) 
 
O solo no começo: 
 
 
E ------------------------------------------------------------------------ 
B 3------3------3-----1------1-----1----1------1-----1----0-----0-----0--- 
G --2------2------2-----2------2-----2----2------2-----2----0-----0-----0- 
D ----4------4------------2------2----------2------2----------2-----2----- 
A ------------------------------------------------------------------------ 
E ------------------------------------------------------------------------ 
 
O Refrão: 
 
             Yoouuuuuuuuuuuuuuuu        Aaaaaareeee       
E ------------------------------------------------------------------------ 
B 3------3------3-----1------1-----1----1------1-----1----0-----0-----0--- 
G --2------2------2-----2------2-----2----2------2-----2----0-----0-----0- 
D ----4------4------------2------2----------2------2----------2-----2----- 
A ------------------------------------------------------------------------ 
E ------------------------------------------------------------------------ 
 
Depois de o Refrão tocar pela 2ª vez a música muda e fica assim: 
 
E 3---2-----3---2-----3----2--------3---2-----3---2-----3---2--- 
B -------3---------3-----------------------1---------1---------- 
G -------------------------------------------------------------- 
D -------------------------------------------------------------- 
A -------------------------------------------------------------- 
E -------------------------------------------------------------- 
 
E 3---2-----3---2-----3----2--------3---2-----3---2-----3---2--- 
B -------1---------1-----------------------0---------0---------- 
G -------------------------------------------------------------- 
D -------------------------------------------------------------- 
A -------------------------------------------------------------- 
E -------------------------------------------------------------- 

	  

Search Paypal
auto scroll beats size up size down change color hide chords drawings
tab show chords e-chords YouTube Clip e-chords hide all tabs e-chords go to top tab