Cold

Stupid Girl Tab

Cold

Difficulty: nolevelnolevel

tuner correct add songbook print version text version save to e-mail
chordsukulelecavacokeyboardtabbassdrumsharmonicsflute Guitar Pro
close

there isn't a video lesson for this song

chords

Stupid Girl

  		 
Tuning: C F Bb Eb G C 
 
Intro 
| ----------------------------------------------------------- 
| ----------------------------------------------------------- 
| ----------------------------------------------------------- 
| ----------------------------------------------------------- 
| ----------------------------------------------------------- 
| -/0-17-17-0-17-17-0-17-17-17--16-16-16-14-14-14-- 
 
Intro 
| ------------------------------------------------------- 
| ------------------------------------------------------- 
| ------------------------------------------------------- 
| ------------------------------------------------------- 
| ------------------14--14-14-14----------------------- 
| -0-10-10-10-10-12--12-12-12----------------------- 
 
Intro 
| ------------------------------------------------------------ 
| ------------------------------------------------------------ 
| ------------------------------------------------------------ 
| ----------------------------------------------5-5-5-------- 
| -2-2-2-2-2-2--4-4-4-5-5-5--2-2-2-2-2-2--3-3-3-5-5-5- 
| -0-0-0-0-0-0--2-2-2-3-3-3--0-0-0-0-0-0---------3-3-3- 
 
Pre-Chorus  mute 
| ------------------------------------------------------------ 
| ------------------------------------------------------------ 
| ------------------------------------------------------------ 
| ----------------------------------------------5-5-5-------- 
| -2-2-2-2-2-2--4-4-4-5-5-5--2-2-2-2-2-2--3-3-3-5-5-5- 
| -0-0-0-0-0-0--2-2-2-3-3-3--0-0-0-0-0-0---------3-3-3- 
 
Chorus guitar 1  
| ------------------ 
| ------------------ 
| ------------------ 
| -2---6----------- 
| -0---4--4---2--- 
| ---------2---0--- 
 
Chorus guitar 2 
| ------------------ 
| ------------------ 
| ----------------- 
| -14--13-11--9-- 
| -12--11--9--7-- 
| ------------------ 
 
Chorus Outro 
| ------------------------------------------------------------ 
| ------------------------------------------------------------ 
| ------------------------------------------------------------ 
| ----------------------------------------------5-5-5-------- 
| -2-2-2-2-2-2--4-4-4-5-5-5--2-2-2-2-2-2--3-3-3-5-5-5- 
| -0-0-0-0-0-0--2-2-2-3-3-3--0-0-0-0-0-0---------3-3-3- 
 
Bridge part 1 
| ------------------------------------------------------------ 
| ------------------------------------------------------------ 
| ------------------------------------------------------------ 
| -9-9-9-9--14--15------------------14--15---------------- 
| -7-7-7-7--12--13--14-14-14-14--12--13--10-10-10-10- 
| ---------------------12-12-12-12------------8--8---8--8- 
 
Bridge part 1 
| -------------------------- 
| -------------------------- 
| -------------------------- 
| -14--15-------------14-- 
| -12--13--9-9-9-9---12-- 
| ----------7-7-7-7-------- 
 
Bridge part 2 
| ------------------------------------------------------------ 
| ------------------------------------------------------------ 
| ------------------------------------------------------------ 
| -9-9-9-9--14--15------------------14--15---------------- 
| -7-7-7-7--12--13--14-14-14-14--12--13--10-10-10-10- 
| ---------------------12-12-12-12------------8--8---8--8- 
 
Bridge part 2 
| -------------------------- 
| -------------------------- 
| -------------------------- 
| -14--15-------------14-- 
| -12--13--9-9-9-9---12-- 
| ----------7-7-7-7-------- 
 
Outro  
| ------------------------------------------------------------ 
| ------------------------------------------------------------ 
| ------------------------------------------------------------ 
| ----------------------------------------------5-5-5-------- 
| -2-2-2-2-2-2--4-4-4-5-5-5--2-2-2-2-2-2--3-3-3-5-5-5- 
| -0-0-0-0-0-0--2-2-2-3-3-3--0-0-0-0-0-0---------3-3-3- 
 
 
 
_______________________________________________________ 
Contribuição: Thiago Ricardo dos reis([email protected]) 

	  

Full key step upFull key step up
Half key step upHalf key step up
Half key step downHalf key step down
Full key step downFull key step down
auto scroll beats size up size down change color hide chords drawings
tab show chords e-chords YouTube Clip e-chords hide all tabs e-chords go to top tab

share with facebook

Search Paypal