Colbie Caillat

Bubbly

Colbie Caillat

tabs Beginner beginner

by  ANDEALVES

save to print version add songbook text version e-mail correct tuner
chordsukulelecavacokeyboardtabbassdrumsharmonicaflute Guitar Pro
close
bubbly-by-colbie-caillat

there is a video lesson for this song

chords

Bubbly

Year: 2007 - Album: Coco

Key:  A More
Bubbly Key EE
Bubbly Key FF
Bubbly Key F#F#
Bubbly Key GG(one step down)
Bubbly Key G#G#(half step down)
Bubbly Key AA(original key)
Bubbly Key A#A#(half step up)
Bubbly Key BB(one step up)
Bubbly Key CC
Bubbly Key C#C#
Bubbly Key DD
Bubbly Key D#D#
	  		this is my first tab but im pretty sure its right:}its a pretty new song but its really 
and amazing so learn it!and if u like me ull want to sing it too so ill put the lyrics 
it:} i havent figured out the bridge yet so you could probably just do it accapella cuz  
pretty short. its played th capo. yea i kno its high but its what she does. 

intro: 
e|-----------------------------------| 
B|-----------------------------------| 
G|---7--7----0--0----0--0----7--7----| 
D|---4--4----4--4----0--0----4--4----| 2x 
A|---5--5----4--4----2--2----5--5----| 
E|-----------------------------------| 

e|-------------------------------------------------------------------------| 
B|-------------------------------------------------------------------------| 
G|---7----------7-----------0-------0--------0--------0-------7-------7----| 
D|---4----------4-----------4-------4--------0--------0-------4-------4----| 
A|---5----------5-----------4-------4--------2--------2-------5-------5----| 
E|-------------------------------------------------------------------------| 
		  

See also:

tabs Vanilla Ice - Ice ice baby (intro) tabs The Kooks - she?s move in her own way tabs Epica - Run For A Fall tabs The Kooks - Naive tabs MC Hammer - Can't Touch This tabs Nino Rota - O Poderoso Chef„o
e-chords

Other versions:

tabs Colbie Caillat - Bubbly
auto scroll beats size up size down change color hide chords drawings
tab show chords e-chords YouTube Clip e-chords hide all tabs e-chords go to top tab

share