Coal Chamber

Watershed (ver. 2)

Coal Chamber

tabs

save to print version add songbook text version e-mail correct tuner
chordsukulelecavacokeyboardtabbassdrumsharmonicaflute Guitar Pro
close

there isn't a video lesson for this song

chords

Watershed (ver. 2)

	  		Band:Coal Chamber 
Song:watershed 
Album:Dark Days 
 
Tabbing: A-E-A-D-G-H 
 
intro 
h--------------------------------------- 
g--------------------------------------- 
d---------------------------------------       4x 
a--------------------------------------- 
e--------------------------------------- 
a-0-12-13-12-0-12-13-12-12-13-12-------- 
 
Verse 
h--------------------------------------- 
g--------------------------------------- 
d--------------------------------------- 
a---------------------------------------  16x 
e--------------------------------------- 
a-0-0-0-1-0----------------------------- 
 
Chorus 
h-------------------------------------- 
g-------------------------------------- 
d-------------------------------------- 
a--------------------------------------  4x 
e-------------------------------------- 
a-0-12-13-12-0-12-13-12-12-13-12------- 
 
Verse 
h------------------------------------- 
g------------------------------------- 
d------------------------------------- 
a------------------------------------- 
e------------------------------------- 
a-0-0-0-1-0--------------------------- 
 
Chorus 
h------------------------------------- 
g------------------------------------- 
d------------------------------------- 
a------------------------------------- 
e------------------------------------- 
a-0-12-13-12-0-12-13-12-12-13-12------ 
 
Ending 
h------------------------------------- 
g------------------------------------- 
d------------------------------------- 
a------------------------------------- 2x 
e------------------------------------- 
a-0-0-0-1-0--------------------------- 
I hope you have fun with it! 
BYE 
 

		  

See also:

tabs James Blunt - Cry tabs Iron Butterfly - IronButterfly-in A Gadda Da Vida tabs Stone Sour - Through glass (ver. 2) tabs Candlebox - Far behind tabs Mudvayne - World so cold tabs James Blunt - Wisemen
e-chords

Other versions:

tabs Coal Chamber - Watershed tabs Coal Chamber - Watershed (ver. 2)
auto scroll beats size up size down change color hide chords drawings
tab show chords e-chords YouTube Clip e-chords hide all tabs e-chords go to top tab

share