Coal Chamber

Untrue

Coal Chamber

tabs

save to print version add songbook text version e-mail correct tuner
chordsukulelecavacokeyboardtabbassdrumsharmonicaflute Guitar Pro
close

there isn't a video lesson for this song

chords

Untrue

	  		-Untrue- 
By: Coal Chamber 
Album: Chamber Music 
Guitarist: Miguel "Meegz" Rascon 
Tabbed By: Brandon Moroch ([email protected]) 
Tuning: B,E,A,D,g,b 
Key: ~= ring 
     /= slide 
     x= muted string 
  
i tabbed out all the different parts for this song, you can  
figure out the order, this is not a hard song to put together 
i am tabbin this from memory, i basically have my guitar in 
front of me while im tabbin this out, I think this is pretty  
*** close. Use a flanging/wah/chorus effect with echo and light 
distortion, for the intro.   
 
 
 
|--------------16~----| 
|-----0~--------0~----| 
|--10~----------------| 
|----0~---------------| 
|---------------------| 
|---------------------| 
 
|--------12~------------16~-18~---------12~------------16~-17~----| 
|----10~------/16~--18~------------10~-------/16~--18~------------| 
|-----------------------------------------------------------------| 
|-----------------------------------------------------------------| 
|-----------------------------------------------------------------| 
|-----------------------------------------------------------------| 
 
|-----------------------------| 
|-----------------------------| 
|-----------------------------| 
|-----------------------------| 
|--2-22/3-3\2-22-2-6-/55-5----| 
|--0-00/1-1\0-00-0-4-/33-3-0--| 
 
|---------------------------------------------------------| 
|----------------------------------------------16\15\14---| 
|---11-11-1111-11\9-9-99-9\8/9-9/1414-14141414/15\14\13---| 
|----x--x--x-x--x-x-x-xx-x-x-x-x--x-x--x-x-x-x--x--x--x---| 
|--4-9--9--9-9--9\7-7-77-7\6/7-7/1212-12121212/13\12\10---| 
|--2------------------------------------------------------| 
 
end on: 
|---------| 
|---------| 
|-11~~~---| 
|--x~~~---| 
|--9~~~---| 
|--0~~~---| 
 

		  

See also:

tabs Avantasia - Sign Of The Cross tabs Bloodhound Gang - Fire Water Burn (The Roof is on Fire) tabs Deftones - Change tabs Crazy Town - Buterfly tabs Stone Sour - Bother tabs Interpol - Obstacle (ver. 1)
e-chords

Other versions:

tabs Coal Chamber - Untrue
auto scroll beats size up size down change color hide chords drawings
tab show chords e-chords YouTube Clip e-chords hide all tabs e-chords go to top tab

share