Coal Chamber

Something Told Me

Coal Chamber

tabs

save to print version add songbook text version e-mail correct tuner
chordsukulelecavacokeyboardtabbassdrumsharmonicaflute Guitar Pro
close

there isn't a video lesson for this song

chords

Something Told Me

	  		
This song is in played in Drop-D down three steps.      (Low to High)   A E a D F# B  
 
pm - palm mute 
 
-1|--------------------------------------------------------------------------- 
-2|--------------------------------------------------------------------------- 
-3|---7-7-7-7-7-7-7-7-7-7-7-7-7-7-7-7-7-7-7-7-7-7-7-7-7-7-7-7-7-7-7 
-4|--------------------------------------------------------------------------- 
-5|--------------------------------------------------------------------------- 
-6|--------------------------------------------------------------------------- 
    Intro      Guitar 1                                                        
 
-1|--------------------------------------------------------------------------- 
-2|--------------------------------------------------------------------------- 
-3|--------------------------------------------------------------------------- 
-4|--------------------------------------------------------------------------- 
-5|--------------------------------------------------------------------------- 
-6|------------------10-10-10-10-10-10-10-10-10-10-10-10-10-10-10-10 
      Intro     Guitar 2                                                       
 
-1|--------------------------------------------------------------------------- 
-2|--------------------------------------------------------------------------- 
-3|-7/8---------7/8----------7/8----------7/8----------------------------- 
-4|--------------------------------------------------------------------------- 
-5|-5/6---------5/6----------5/6----------5/6-----------------5--3------ 
-6|-----0--0-0------0--0-0------0--0-0------------------------5--3------ 
     Post Intro and First Chorus         Play twice           Last time.       
 
-1|-------------------------------------------------------------------------- 
-2|-------------------------------------------------------------------------- 
-3|--7/8------------------------------------------------------------------- 
-4|------------------------------------------------------------------------- 
-5|--5/6---------------------------------------------6--------------------- 
-6|---------5-0-5-0-5-0-5-0-5-0-5-0-5-0-5-0----------6--------------------- 
    Verse pm------------------------------------                                     
 
-1|--------------------------------------------------------------------------- 
-2|--------------------------------------------------------------------------- 
-3|--------------------------------------------------------------------------- 
-4|--3-3---3-3---3-3--3-3-4-----3-3---3-3---3-3---3-3-4------------ 
-5|--3-3---3-3---3-3--3-3-4-----3-3---3-3---3-3---3-3-4------------ 
-6|--3-3---3-3---3-3--3-3-4-----3-3---3-3---3-3---3-3-4------------ 
       Chorus (except the for first one)                  Play this twice                              
 
-1|-------x-x-x-x------x-x-x-x-----x-x-x-x------------------------------------ 
-2|-------x-x-x-x------x-x-x-x-----x-x-x-x------------------------------------ 
-3|-------x-x-x-x------x-x-x-x-----x-x-x-x------------------------------------ 
-4|--3-3-----------3-3---------3-3----------3-4--3-4-------------------------- 
-5|--3-3-----------3-3---------3-3----------3-4--3-4-------------------------- 
-6|--3-3-----------3-3---------3-3----------3-4--3-4-------------------------- 
    Post Chorus fill                                                           
 
-1|--------------------------------------------------------------------------- 
-2|--------------------------------------------------------------------------- 
-3|-----------------------12-8-7--------------------------------------- 
-4|--------------7-8-10------------------------------------------------- 
-5|-3-5-6-8-10---5-6-8----10-6-5--------------------------------------- 
-6|-3-5-6-8-10------------------------------------------------------------- 
    This part is really hazy and is hard to hear and Im not sure if it's  right but it works. 
 
-1|--------------------------------------------------------------------------- 
-2|--------------------------------------------------------------------------- 
-3|-7-8----------------------------------------------------------------------- 
-4|--------------------------------------------------------------------------- 
-5|-5/6----------------------------------------------------------------------- 
-6|-----5-0-5-0-5-0-----5-0-5-0-5-0-5-0-------------------------------- 
          pm-----------------------------------              Riff before the last chorus.  A verse variation. 
 

		  

See also:

tabs Avantasia - Sign Of The Cross tabs Bloodhound Gang - Fire Water Burn (The Roof is on Fire) tabs Deftones - Change tabs Crazy Town - Buterfly tabs Stone Sour - Bother tabs Interpol - Obstacle (ver. 1)
e-chords

Other versions:

tabs Coal Chamber - Something Told Me
auto scroll beats size up size down change color hide chords drawings
tab show chords e-chords YouTube Clip e-chords hide all tabs e-chords go to top tab

share