Coal Chamber

My Frustration

Coal Chamber

tabs

save to print version add songbook text version e-mail correct tuner
chordsukulelecavacokeyboardtabbassdrumsharmonicaflute Guitar Pro
close

there isn't a video lesson for this song

chords

My Frustration

	  		 
 FUKKIN GODDAMMIT!!!! this stupid site fuct up and i have to tab this song all over 
agaiN!!!! AH!!! this one go's out to BrAd the HaMsTrFrEaK >;) 
Tuning (B,E,A,D,G,B) 
 
   intro 
 
     P.M..............             P.M............. 
   A|----------------------|    A|----------------------| 
   E|-4--4--5--4--4--5--%--| 4x E|-3--3--4--3--3--4-%---| 4x 
   B|-2--2--3--2--2--3-----|    B|-1--1--2--1--1--2-----| 
 
   verses 
     P.M..............            P.M.............. 
   A|----------------------|    A|----------------------| 
   E|-------------------%--| 4x E|-4--4--5--4--4--5--%--| 4x 
   B|-2--2--3--2--2--3-----|    B|-2--2--3--2--2--3-----| 
 
     P.M..............................        P.M.............................. 
   A|---------------------------------|     A|---------------------------------| 
   E|-----%-----%-----%-----%---------| 4x  E|-4-4-%-4-4-%-4-4-%-4-4-%-5-5-5---| 4x 
   B|-2-2---2-2---2-2---2-2---3-3-3-0-|     B|-2-2---2-2---2-2---2-2---3-3-3-0-| 
 
   chorus 
 
   B|---------------------2-----|------------------------| 
   G|---------------------------|------------------------| 
   D|---------------------------|------------------------|  4x 
   A|-----------------%---------|------------------------| 
   E|-4--4--4--5--4-------------|-4--4--4--/7----7--5----| 
   B|-2--2--2--3--2-------------|-2--2--2--/5----5--3----| 
 
   end of 2nd chorus 
 
     let ring................................................. 
   B|-----------------------------0---------------------------| 
   G|---------------------------------------------------------| 
   D|---------------------------------------------------------| 
   A|---------------0------------------------------0----------| 
   E|----4----------4-----------------------------------------| 
   B|----2----------------------------------------------------| 
 
   bridge 
 
     P.M.......................................... 
   A|-----------------------|-----------------------| 
   E|-2---------------------|-----------------------| 4x 
   B|------4--3----0--3--2--|-0----3--2----0--2--1--| 
 
   interlude 
                                                            P.M.. 
   A|-4---------------------|-----------------------|     A|----------| 
   E|-2----6--5-------5--4--|------5--4-------4--3--| 4x  E|-2--2--%--| 4x 
   B|------4--3----0--3--2--|-0----3--2----0--2--1--|     B|-0--0-----| 
 
 and that kiddiez is pretty mush the whole song!!!! HAVE FUN PLAYING IT!!!!!! 
 

		  

See also:

tabs Avantasia - Sign Of The Cross tabs Bloodhound Gang - Fire Water Burn (The Roof is on Fire) tabs Deftones - Change tabs Crazy Town - Buterfly tabs Stone Sour - Bother tabs Interpol - Obstacle (ver. 1)
e-chords

Other versions:

tabs Coal Chamber - My Frustration tabs Coal Chamber - My Frustration (ver. 2)
auto scroll beats size up size down change color hide chords drawings
tab show chords e-chords YouTube Clip e-chords hide all tabs e-chords go to top tab

share