Coal Chamber

Loco-2

Coal Chamber

tabs

save to print version add songbook text version e-mail correct tuner
chordsukulelecavacokeyboardtabbassdrumsharmonicaflute Guitar Pro
close

there isn't a video lesson for this song

chords

Loco-2

	  		-Loco- 
By: Coal Chamber 
Album: Coal Chamber 
Guitarist: Miguel "Meegz" Rascon 
Tuning: B,F#,B,e,g#,c#  (down 1.5 steps, drop d) 
Transcribed by: Brandon Moroch -Meegz1120-  
 [email protected] 
Key:  
 
I Tabbed out all the different parts to this song. You can  
figure out the order and timing.  
This is a good song, they tend to speed up this song live from about 4/4 time to  
a 7/4 timing. Make sure to listen to the song for exact timing, some parts are  
hard to keep track on. i love playin this song the  
sped up version.  
for verse part there is a second guitar that plays same notes 8uv (8 double octave), 
harmonicized. 
 
 
|-----------------------------------------------|      |--------| 
|--0h3-3-33-3-3-33-3----3---3-0h3^-3--3-33--3---| 4x   |--------| let ring  
|--------------------6-6-66-6--------6-6---6----|      |--------| for about 
|-----------------------------------------------|      |-0~~~~--| 10 beats 
|-----------------------------------------------|      |-0~~~~--| 
|-----------------------------------------------|      |-0~~~~--| 
 
 
|-----------------------------------------------------------------------------| 
|-----------------------------------------------------------------------------| 
|----------------------------------------------------------------7------------| 
|-0-2-0-2-0-2-02-5-6-0-2-0-2-0-2-02-6-5-0-2-0-2-0-2-02-5-6-0-2-0-5-6-66-0-2-0-| 
|-0-2-0-2-0-2-02-5-6-0-2-0-2-0-2-02-6-5-0-2-0-2-0-2-02-5-6-0-2-0-5-6-66-0-2-0-| 
|-0-2-0-2-0-2-02-5-6-0-2-0-2-0-2-02-6-5-0-2-0-2-0-2-02-5-6-0-2-0-5-6-66-0-2-0-| 
  * * * * * * ** * * * * * * * * ** * * * * * * * * ** * * * * *   * ** * * 
 
|------------------------------------------------------------------------------|  
|------------------------------------------------------------------------------|  
|-----------------------<5>--------------<5>-----------------------------------|  
|--------------------<5>------------<7>-<5>------------------------------------| harmonicizied  
|----------------------<5>----------<7>----------------------------------------| w/ phaser 
|-0-2-0-2-0-2-02-5-6--0----2-0-2-02--------2-0-2-0-2-02-6-5-02-0-2-5^-02-0-2-0-|   
 
|------------------|------------------|---------------| 
|------------------|------------------|---------------| 
|------------------|------------------|---------------| 
|-----2--2--2-2-2--|--2-2/1--1--1-1-1-|-1--1--1-1-1---| 
|-----2--2--2-2-2--|--2-2/1--1--1-1-1-|-1--1--1-1-1---| 
|--0--2--2--2-2-2--|--2-2/1--1--1-1-1-|-1--1--1-1-1---| 
 
|-------------------| 
|-------------------| 
|--------3----------| 
|--1-1/2-1-0-1-2-3--| 
|--1-1/2-1-0-1-2-3--| 
|--1-1/2-1-0-1-2-3--| 
 
|-------------------------------|------------------------------| 
|-------------------------------|-----------------12-12-1212^--| with phaser 
|--5-5---5^-5-5-5-5/7-7-7-7^-7--|--/9-9-99-9-9/11-11-11-1111^--| 
|--x-x-3-x--x-x-x-x-x-x-x-x--x--|---x-x-xx-x-x--x--x--x--x-x---| 
|--3-3-3-3^-3-3-3-3/5-5-5-5^-5--|--/7-7-77-7-7/-9--9--9--9-9^--| 
|-------------------------------|------------------------------| 
 

		  

See also:

tabs Deftones - Change tabs Velvet Revolver - Fall to pieces tabs Darkness - I Believe in a Thing Called Love tabs Lifehouse - Blind Acoustic tabs Queens Of The Stone Age - Go with the Flow tabs Black Crowes - Remedy
e-chords

Other versions:

tabs Coal Chamber - Loco-2
auto scroll beats size up size down change color hide chords drawings
tab show chords e-chords YouTube Clip e-chords hide all tabs e-chords go to top tab

share