Coal Chamber

Glow (ver. 2)

Coal Chamber

tabs

save to print version add songbook text version e-mail correct tuner
chordsukulelecavacokeyboardtabbassdrumsharmonicaflute Guitar Pro
close

there isn't a video lesson for this song

chords

Glow (ver. 2)

	  		Tuning: 7-string in drop A (A,E,A,D,G,B,e) 
 
P  = pull-off 
H  = hammer-on 
X  = mute 
<> = harmonic 
 
 
intro: (some kind of effect is on it also) 
 
-11h12p11-------11h12p11-------11h12p11-------11h12p11---13-----|------------- 
----------12p0-----------12p0-----------12p0--------------------|------------- 
----------------------------------------------------------------|------------- 
----------------------------------------------------------------|------------- 
----------------------------------------------------------------|--2-2-------- 
----------------------------------------------------------------|--2-2-------- 
----------------------------------------------------------------|--2-2--------                                                                              
 
 
intro 2/chorus: 
------------------------------------------------------------------------------ 
------------------------------------------------------------------------------ 
------------------------------------------------------------------------------ 
------------------------------------------------------------------------------ 
--2p0-2p0--202-20--2p0-2p0-202--3--2p0-2p0-202-------------------------------- 
--2p0-2p0--202-20--2p0-2p0-202--3--2p0-2pp-202-------------------------------- 
--2p0-2p0--202-20--2p0-2p0-202--3--2p0-2p0-202-4b----------------------------- 
 
                                                            
verse (first only): mute this real high on the neck                    
------------------------------------------------------------------------------ 
------------------------------------------------------------------------------ 
------------------------------------------------------------------------------ 
------------------------------------------------------------------------------ 
-x-x-x--x--x-x---------------------------------------------------------------- 
-x-x-x--x--x-x---------------------------------------------------------------- 
-x-x-x--x--x-x---------------------------------------------------------------- 
 
 
verse part 2: 
------------------------------------------------------------------------------ 
------------------------------------------------------------------------------ 
------------------------------------------------------------------------------ 
------------------------------------------------------------------------------ 
----------------------------------x-x-1--------------------------------------- 
----------------------------------x-x-1--------------------------------------- 
-0-0-0-0-<5>-<5>-<5>---0-0--0-0-0-x-x-1--------------------------------------- 
 
interlude: 1:55 
------------------------------------------------------------------------------ 
------------------------------------------------------------------------------ 
------------------------------------------------------------------------------ 
------------------------------------------------------------------------------ 
-5-0-6-0-8-0---5-0-6-0-8-0-10------------------------------------------------- 
-5-0-6-0-8-0---5-0-6-0-8-0-10------------------------------------------------- 
-5-0-6-0-8-0---5-0-6-0-8-0-10------------------------------------------------- 
                                                                               
                   
                                                                               
2:18 
------------------------------------------------------------------------------ 
------------------------------------------------------------------------------ 
------------------------------------------------------------------------------ 
------------------------------------------------------------------------------ 
-x-x--x-x--------------------------------------------------------------------- 
-x-x--x-x--------------------------------------------------------------------- 
-x-x--x-x--------------------------------------------------------------------- 
 

		  

See also:

tabs Gary Moore - Parisienne Walkways tabs Crazy Town - Buterfly tabs Velvet Underground - Heroin tabs Slash Snakepit - Godfather Theme tabs Lifehouse - Everything tabs Hoobastank - Disappear
e-chords

Other versions:

tabs Coal Chamber - Glow tabs I See Stars - Glow tabs Thousand Foot Krutch - Glow tabs Moose Blood - Glow tabs Porches - Glow tabs Coal Chamber - Glow (ver. 2)
auto scroll beats size up size down change color hide chords drawings
tab show chords e-chords YouTube Clip e-chords hide all tabs e-chords go to top tab

share